ISO-10303-21;
HEADER;
FILE_DESCRIPTION (( 'STEP AP214' ),
    '1' );
FILE_NAME ('B511 Àëþìèíèåâàÿ òîðöåâàÿ çàãëóøêà 20õ40 (÷åðíàÿ).STEP',
    '2025-06-30T13:47:29',
    ( '' ),
    ( '' ),
    'SwSTEP 2.0',
    'SolidWorks 2025',
    '' );
FILE_SCHEMA (( 'AUTOMOTIVE_DESIGN' ));
ENDSEC;

DATA;
#1 = ORIENTED_EDGE ( 'NONE', *, *, #198, .T. ) ;
#2 = DIRECTION ( 'NONE',  ( 0.000000000000000000, 0.000000000000000000, 1.000000000000000000 ) ) ;
#3 = LINE ( 'NONE', #65, #270 ) ;
#4 = VECTOR ( 'NONE', #72, 1000.000000000000000 ) ;
#5 = CARTESIAN_POINT ( 'NONE',  ( 30.00000000000000355, 1.600000000000000089, -9.999999999999998224 ) ) ;
#6 = EDGE_LOOP ( 'NONE', ( #181, #210, #33, #236 ) ) ;
#7 =( NAMED_UNIT ( * ) SI_UNIT ( $, .STERADIAN. ) SOLID_ANGLE_UNIT ( ) );
#8 = CARTESIAN_POINT ( 'NONE',  ( 30.00000000000000355, -1.600000000000000089, -7.500000000000000000 ) ) ;
#9 = STYLED_ITEM ( 'NONE', ( #314 ), #232 ) ;
#10 = ADVANCED_FACE ( 'NONE', ( #300, #23, #16 ), #87, .T. ) ;
#11 = FACE_OUTER_BOUND ( 'NONE', #222, .T. ) ;
#12 = DIRECTION ( 'NONE',  ( 0.000000000000000000, 0.000000000000000000, 1.000000000000000000 ) ) ;
#13 = DIRECTION ( 'NONE',  ( -0.000000000000000000, -1.000000000000000000, -0.000000000000000000 ) ) ;
#14 = AXIS2_PLACEMENT_3D ( 'NONE', #231, #241, #228 ) ;
#15 = ORIENTED_EDGE ( 'NONE', *, *, #143, .T. ) ;
#16 = FACE_BOUND ( 'NONE', #320, .T. ) ;
#17 = LINE ( 'NONE', #125, #4 ) ;
#18 = PLANE ( 'NONE',  #276 ) ;
#19 = EDGE_CURVE ( 'NONE', #20, #173, #44, .T. ) ;
#20 = VERTEX_POINT ( 'NONE', #220 ) ;
#21 = APPLICATION_PROTOCOL_DEFINITION ( 'draft international standard', 'automotive_design', 1998, #158 ) ;
#22 = ADVANCED_FACE ( 'NONE', ( #329 ), #18, .F. ) ;
#23 = FACE_OUTER_BOUND ( 'NONE', #99, .T. ) ;
#24 = ORIENTED_EDGE ( 'NONE', *, *, #251, .F. ) ;
#25 = VERTEX_POINT ( 'NONE', #147 ) ;
#26 = ADVANCED_FACE ( 'NONE', ( #62 ), #190, .F. ) ;
#27 = VECTOR ( 'NONE', #192, 1000.000000000000000 ) ;
#28 = CARTESIAN_POINT ( 'NONE',  ( 40.00000000000000000, 1.600000000000000089, 0.000000000000000000 ) ) ;
#29 = PRODUCT ( 'B511 \X2\0410043b044e043c0438043d0438043504320430044f\X0\ \X2\0442043e04400446043504320430044f\X0\ \X2\043704300433043b04430448043a0430\X0\ 20\X2\0445\X0\40 (\X2\044704350440043d0430044f\X0\)', 'B511 \X2\0410043b044e043c0438043d0438043504320430044f\X0\ \X2\0442043e04400446043504320430044f\X0\ \X2\043704300433043b04430448043a0430\X0\ 20\X2\0445\X0\40 (\X2\044704350440043d0430044f\X0\)', '', ( #253 ) ) ;
#30 = VERTEX_POINT ( 'NONE', #63 ) ;
#31 = EDGE_CURVE ( 'NONE', #274, #203, #167, .T. ) ;
#32 = PLANE ( 'NONE',  #297 ) ;
#33 = ORIENTED_EDGE ( 'NONE', *, *, #93, .F. ) ;
#34 = DIRECTION ( 'NONE',  ( -0.000000000000000000, -0.000000000000000000, 1.000000000000000000 ) ) ;
#35 = ORIENTED_EDGE ( 'NONE', *, *, #90, .F. ) ;
#36 = CIRCLE ( 'NONE', #224, 2.500000000000000444 ) ;
#37 = ORIENTED_EDGE ( 'NONE', *, *, #217, .T. ) ;
#38 = PRODUCT_DEFINITION_SHAPE ( 'NONE', 'NONE',  #155 ) ;
#39 = LINE ( 'NONE', #240, #103 ) ;
#40 = ADVANCED_FACE ( 'NONE', ( #250, #226, #322 ), #98, .F. ) ;
#41 = DIRECTION ( 'NONE',  ( 0.000000000000000000, 0.000000000000000000, 1.000000000000000000 ) ) ;
#42 = EDGE_LOOP ( 'NONE', ( #15, #113 ) ) ;
#43 = CARTESIAN_POINT ( 'NONE',  ( 9.999999999999998224, 1.600000000000000089, -9.999999999999998224 ) ) ;
#44 = LINE ( 'NONE', #124, #205 ) ;
#45 = CIRCLE ( 'NONE', #187, 2.499999999999998668 ) ;
#46 = EDGE_LOOP ( 'NONE', ( #229, #78 ) ) ;
#47 = CARTESIAN_POINT ( 'NONE',  ( 0.000000000000000000, 0.000000000000000000, 0.000000000000000000 ) ) ;
#48 = FACE_OUTER_BOUND ( 'NONE', #6, .T. ) ;
#49 = CIRCLE ( 'NONE', #73, 2.500000000000000444 ) ;
#50 = CIRCLE ( 'NONE', #121, 2.499999999999998668 ) ;
#51 = DIRECTION ( 'NONE',  ( 0.000000000000000000, 0.000000000000000000, 1.000000000000000000 ) ) ;
#52 = ORIENTED_EDGE ( 'NONE', *, *, #299, .T. ) ;
#53 = VECTOR ( 'NONE', #102, 1000.000000000000000 ) ;
#54 = DIRECTION ( 'NONE',  ( -0.000000000000000000, -1.000000000000000000, -0.000000000000000000 ) ) ;
#55 = ORIENTED_EDGE ( 'NONE', *, *, #302, .T. ) ;
#56 = FILL_AREA_STYLE ('',( #164 ) ) ;
#57 = ORIENTED_EDGE ( 'NONE', *, *, #234, .F. ) ;
#58 = CYLINDRICAL_SURFACE ( 'NONE', #174, 2.499999999999998668 ) ;
#59 = ORIENTED_EDGE ( 'NONE', *, *, #299, .F. ) ;
#60 = LINE ( 'NONE', #221, #268 ) ;
#61 = EDGE_CURVE ( 'NONE', #20, #274, #335, .T. ) ;
#62 = FACE_OUTER_BOUND ( 'NONE', #163, .T. ) ;
#63 = CARTESIAN_POINT ( 'NONE',  ( 40.00000000000000000, 1.600000000000000089, 0.000000000000000000 ) ) ;
#64 = VERTEX_POINT ( 'NONE', #280 ) ;
#65 = CARTESIAN_POINT ( 'NONE',  ( 0.000000000000000000, -1.600000000000000089, 0.000000000000000000 ) ) ;
#66 = AXIS2_PLACEMENT_3D ( 'NONE', #77, #180, #51 ) ;
#67 = ORIENTED_EDGE ( 'NONE', *, *, #312, .T. ) ;
#68 = DIRECTION ( 'NONE',  ( -1.000000000000000000, -0.000000000000000000, -0.000000000000000000 ) ) ;
#69 = PRODUCT_DEFINITION_CONTEXT ( 'detailed design', #158, 'design' ) ;
#70 = LINE ( 'NONE', #243, #249 ) ;
#71 = ORIENTED_EDGE ( 'NONE', *, *, #251, .T. ) ;
#72 = DIRECTION ( 'NONE',  ( 1.000000000000000000, 0.000000000000000000, 0.000000000000000000 ) ) ;
#73 = AXIS2_PLACEMENT_3D ( 'NONE', #134, #168, #41 ) ;
#74 = CARTESIAN_POINT ( 'NONE',  ( 9.999999999999998224, -1.600000000000000089, -12.49999999999999822 ) ) ;
#75 = CARTESIAN_POINT ( 'NONE',  ( 9.999999999999998224, 1.600000000000000089, -9.999999999999998224 ) ) ;
#76 = MECHANICAL_DESIGN_GEOMETRIC_PRESENTATION_REPRESENTATION (  '', ( #9 ), #318 ) ;
#77 = CARTESIAN_POINT ( 'NONE',  ( 9.999999999999998224, -1.600000000000000089, -9.999999999999998224 ) ) ;
#78 = ORIENTED_EDGE ( 'NONE', *, *, #217, .F. ) ;
#79 = ORIENTED_EDGE ( 'NONE', *, *, #301, .F. ) ;
#80 = LINE ( 'NONE', #255, #258 ) ;
#81 = EDGE_CURVE ( 'NONE', #30, #64, #109, .T. ) ;
#82 = VERTEX_POINT ( 'NONE', #278 ) ;
#83 = DIRECTION ( 'NONE',  ( -0.000000000000000000, -1.000000000000000000, -0.000000000000000000 ) ) ;
#84 = SURFACE_SIDE_STYLE ('',( #309 ) ) ;
#85 = ORIENTED_EDGE ( 'NONE', *, *, #61, .T. ) ;
#86 = CARTESIAN_POINT ( 'NONE',  ( 30.00000000000000355, 1.600000000000000089, -9.999999999999998224 ) ) ;
#87 = PLANE ( 'NONE',  #14 ) ;
#88 = EDGE_CURVE ( 'NONE', #104, #326, #36, .T. ) ;
#89 = CARTESIAN_POINT ( 'NONE',  ( 40.00000000000000000, -1.600000000000000089, -20.00000000000000000 ) ) ;
#90 = EDGE_CURVE ( 'NONE', #203, #173, #45, .T. ) ;
#91 = EDGE_LOOP ( 'NONE', ( #153, #85, #308, #122 ) ) ;
#92 = APPLICATION_PROTOCOL_DEFINITION ( 'draft international standard', 'automotive_design', 1998, #110 ) ;
#93 = EDGE_CURVE ( 'NONE', #30, #111, #80, .T. ) ;
#94 = VECTOR ( 'NONE', #227, 1000.000000000000000 ) ;
#95 = DIRECTION ( 'NONE',  ( 0.000000000000000000, 0.000000000000000000, -1.000000000000000000 ) ) ;
#96 = ORIENTED_EDGE ( 'NONE', *, *, #200, .F. ) ;
#97 = LINE ( 'NONE', #204, #285 ) ;
#98 = PLANE ( 'NONE',  #148 ) ;
#99 = EDGE_LOOP ( 'NONE', ( #79, #196, #96, #136 ) ) ;
#100 = DIRECTION ( 'NONE',  ( 0.000000000000000000, 1.000000000000000000, -0.000000000000000000 ) ) ;
#101 = EDGE_CURVE ( 'NONE', #82, #25, #131, .T. ) ;
#102 = DIRECTION ( 'NONE',  ( -0.000000000000000000, -1.000000000000000000, -0.000000000000000000 ) ) ;
#103 = VECTOR ( 'NONE', #263, 1000.000000000000000 ) ;
#104 = VERTEX_POINT ( 'NONE', #182 ) ;
#105 = AXIS2_PLACEMENT_3D ( 'NONE', #47, #149, #272 ) ;
#106 = CARTESIAN_POINT ( 'NONE',  ( 9.999999999999998224, 1.600000000000000089, -7.499999999999998224 ) ) ;
#107 = ADVANCED_FACE ( 'NONE', ( #233 ), #32, .F. ) ;
#108 = EDGE_LOOP ( 'NONE', ( #296, #239, #116, #71 ) ) ;
#109 = LINE ( 'NONE', #28, #161 ) ;
#110 = APPLICATION_CONTEXT ( 'automotive_design' ) ;
#111 = VERTEX_POINT ( 'NONE', #304 ) ;
#112 = FACE_OUTER_BOUND ( 'NONE', #127, .T. ) ;
#113 = ORIENTED_EDGE ( 'NONE', *, *, #128, .T. ) ;
#114 = DIRECTION ( 'NONE',  ( 1.000000000000000000, -0.000000000000000000, 0.000000000000000000 ) ) ;
#115 = CARTESIAN_POINT ( 'NONE',  ( 0.000000000000000000, 1.600000000000000089, -20.00000000000000000 ) ) ;
#116 = ORIENTED_EDGE ( 'NONE', *, *, #93, .T. ) ;
#117 = CARTESIAN_POINT ( 'NONE',  ( 0.000000000000000000, -1.600000000000000089, 0.000000000000000000 ) ) ;
#118 = COLOUR_RGB ( '',0.8666666666666666963, 0.9098039215686274384, 1.000000000000000000 ) ;
#119 = DIRECTION ( 'NONE',  ( -0.000000000000000000, -1.000000000000000000, -0.000000000000000000 ) ) ;
#120 = CARTESIAN_POINT ( 'NONE',  ( 30.00000000000000355, -1.600000000000000089, -9.999999999999998224 ) ) ;
#121 = AXIS2_PLACEMENT_3D ( 'NONE', #199, #100, #292 ) ;
#122 = ORIENTED_EDGE ( 'NONE', *, *, #302, .F. ) ;
#123 = DIRECTION ( 'NONE',  ( -0.000000000000000000, -0.000000000000000000, 1.000000000000000000 ) ) ;
#124 = CARTESIAN_POINT ( 'NONE',  ( 30.00000000000000355, 1.600000000000000089, -7.500000000000000000 ) ) ;
#125 = CARTESIAN_POINT ( 'NONE',  ( 0.000000000000000000, 1.600000000000000089, 0.000000000000000000 ) ) ;
#126 = VECTOR ( 'NONE', #215, 1000.000000000000000 ) ;
#127 = EDGE_LOOP ( 'NONE', ( #175, #277, #185, #265 ) ) ;
#128 = EDGE_CURVE ( 'NONE', #279, #317, #327, .T. ) ;
#129 = ORIENTED_EDGE ( 'NONE', *, *, #266, .T. ) ;
#130 = CARTESIAN_POINT ( 'NONE',  ( 9.999999999999998224, -1.600000000000000089, -9.999999999999998224 ) ) ;
#131 = LINE ( 'NONE', #157, #238 ) ;
#132 = CARTESIAN_POINT ( 'NONE',  ( 0.000000000000000000, 1.600000000000000089, -20.00000000000000000 ) ) ;
#133 = ORIENTED_EDGE ( 'NONE', *, *, #128, .F. ) ;
#134 = CARTESIAN_POINT ( 'NONE',  ( 9.999999999999998224, 1.600000000000000089, -9.999999999999998224 ) ) ;
#135 = AXIS2_PLACEMENT_3D ( 'NONE', #294, #328, #12 ) ;
#136 = ORIENTED_EDGE ( 'NONE', *, *, #186, .F. ) ;
#137 = CARTESIAN_POINT ( 'NONE',  ( 30.00000000000000355, -1.600000000000000089, -12.49999999999999645 ) ) ;
#138 = ORIENTED_EDGE ( 'NONE', *, *, #281, .F. ) ;
#139 = DIRECTION ( 'NONE',  ( 0.000000000000000000, 1.000000000000000000, 0.000000000000000000 ) ) ;
#140 = ORIENTED_EDGE ( 'NONE', *, *, #234, .T. ) ;
#141 = DIRECTION ( 'NONE',  ( -0.000000000000000000, -1.000000000000000000, -0.000000000000000000 ) ) ;
#142 = PRODUCT_DEFINITION_FORMATION_WITH_SPECIFIED_SOURCE ( 'ANY', '', #29, .NOT_KNOWN. ) ;
#143 = EDGE_CURVE ( 'NONE', #317, #279, #289, .T. ) ;
#144 = EDGE_LOOP ( 'NONE', ( #129, #57, #24, #246 ) ) ;
#145 =( NAMED_UNIT ( * ) SI_UNIT ( $, .STERADIAN. ) SOLID_ANGLE_UNIT ( ) );
#146 = CARTESIAN_POINT ( 'NONE',  ( 9.999999999999998224, -1.600000000000000089, -7.499999999999998224 ) ) ;
#147 = CARTESIAN_POINT ( 'NONE',  ( 0.000000000000000000, 1.600000000000000089, 0.000000000000000000 ) ) ;
#148 = AXIS2_PLACEMENT_3D ( 'NONE', #176, #202, #295 ) ;
#149 = DIRECTION ( 'NONE',  ( 0.000000000000000000, 0.000000000000000000, 1.000000000000000000 ) ) ;
#150 = CARTESIAN_POINT ( 'NONE',  ( 0.000000000000000000, -1.600000000000000089, -20.00000000000000000 ) ) ;
#151 = AXIS2_PLACEMENT_3D ( 'NONE', #269, #114, #184 ) ;
#152 = CARTESIAN_POINT ( 'NONE',  ( 9.999999999999998224, 1.600000000000000089, -9.999999999999998224 ) ) ;
#153 = ORIENTED_EDGE ( 'NONE', *, *, #19, .F. ) ;
#154 = DIRECTION ( 'NONE',  ( 0.000000000000000000, 1.000000000000000000, 0.000000000000000000 ) ) ;
#155 = PRODUCT_DEFINITION ( 'UNKNOWN', '', #142, #69 ) ;
#156 = AXIS2_PLACEMENT_3D ( 'NONE', #43, #141, #288 ) ;
#157 = CARTESIAN_POINT ( 'NONE',  ( 0.000000000000000000, 1.600000000000000089, 0.000000000000000000 ) ) ;
#158 = APPLICATION_CONTEXT ( 'automotive_design' ) ;
#159 = ORIENTED_EDGE ( 'NONE', *, *, #19, .T. ) ;
#160 = SURFACE_STYLE_USAGE ( .BOTH. , #84 ) ;
#161 = VECTOR ( 'NONE', #54, 1000.000000000000000 ) ;
#162 = DIRECTION ( 'NONE',  ( 1.000000000000000000, 0.000000000000000000, 0.000000000000000000 ) ) ;
#163 = EDGE_LOOP ( 'NONE', ( #138, #37, #67, #133 ) ) ;
#164 = FILL_AREA_STYLE_COLOUR ( '', #118 ) ;
#165 = DIRECTION ( 'NONE',  ( -0.000000000000000000, -1.000000000000000000, -0.000000000000000000 ) ) ;
#166 = PLANE ( 'NONE',  #151 ) ;
#167 = LINE ( 'NONE', #264, #53 ) ;
#168 = DIRECTION ( 'NONE',  ( 0.000000000000000000, 1.000000000000000000, 0.000000000000000000 ) ) ;
#169 = AXIS2_PLACEMENT_3D ( 'NONE', #86, #261, #290 ) ;
#170 = LINE ( 'NONE', #254, #94 ) ;
#171 = EDGE_LOOP ( 'NONE', ( #213, #193, #223, #1 ) ) ;
#172 = ADVANCED_FACE ( 'NONE', ( #11 ), #58, .F. ) ;
#173 = VERTEX_POINT ( 'NONE', #8 ) ;
#174 = AXIS2_PLACEMENT_3D ( 'NONE', #5, #83, #286 ) ;
#175 = ORIENTED_EDGE ( 'NONE', *, *, #88, .T. ) ;
#176 = CARTESIAN_POINT ( 'NONE',  ( 0.000000000000000000, 1.600000000000000089, 0.000000000000000000 ) ) ;
#177 = DIRECTION ( 'NONE',  ( 0.000000000000000000, 0.000000000000000000, -1.000000000000000000 ) ) ;
#178 = AXIS2_PLACEMENT_3D ( 'NONE', #120, #271, #95 ) ;
#179 = EDGE_LOOP ( 'NONE', ( #59, #331 ) ) ;
#180 = DIRECTION ( 'NONE',  ( 0.000000000000000000, 1.000000000000000000, 0.000000000000000000 ) ) ;
#181 = ORIENTED_EDGE ( 'NONE', *, *, #200, .T. ) ;
#182 = CARTESIAN_POINT ( 'NONE',  ( 9.999999999999998224, 1.600000000000000089, -12.49999999999999822 ) ) ;
#183 = CARTESIAN_POINT ( 'NONE',  ( 30.00000000000000355, -1.600000000000000089, -9.999999999999998224 ) ) ;
#184 = DIRECTION ( 'NONE',  ( 0.000000000000000000, 0.000000000000000000, -1.000000000000000000 ) ) ;
#185 = ORIENTED_EDGE ( 'NONE', *, *, #143, .F. ) ;
#186 = EDGE_CURVE ( 'NONE', #216, #64, #3, .T. ) ;
#187 = AXIS2_PLACEMENT_3D ( 'NONE', #183, #332, #177 ) ;
#188 = ADVANCED_FACE ( 'NONE', ( #214 ), #166, .F. ) ;
#189 = DIRECTION ( 'NONE',  ( -1.000000000000000000, 0.000000000000000000, -0.000000000000000000 ) ) ;
#190 = CYLINDRICAL_SURFACE ( 'NONE', #247, 2.500000000000000444 ) ;
#191 = ORIENTED_EDGE ( 'NONE', *, *, #301, .T. ) ;
#192 = DIRECTION ( 'NONE',  ( -0.000000000000000000, -1.000000000000000000, -0.000000000000000000 ) ) ;
#193 = ORIENTED_EDGE ( 'NONE', *, *, #81, .F. ) ;
#194 = CARTESIAN_POINT ( 'NONE',  ( 9.999999999999998224, 1.600000000000000089, -7.499999999999998224 ) ) ;
#195 = PRESENTATION_LAYER_ASSIGNMENT (  '', '', ( #9 ) ) ;
#196 = ORIENTED_EDGE ( 'NONE', *, *, #266, .F. ) ;
#197 = UNCERTAINTY_MEASURE_WITH_UNIT (LENGTH_MEASURE( 1.000000000000000082E-05 ), #257, 'distance_accuracy_value', 'NONE');
#198 = EDGE_CURVE ( 'NONE', #25, #216, #260, .T. ) ;
#199 = CARTESIAN_POINT ( 'NONE',  ( 30.00000000000000355, 1.600000000000000089, -9.999999999999998224 ) ) ;
#200 = EDGE_CURVE ( 'NONE', #64, #256, #39, .T. ) ;
#201 = PLANE ( 'NONE',  #135 ) ;
#202 = DIRECTION ( 'NONE',  ( 0.000000000000000000, -1.000000000000000000, 0.000000000000000000 ) ) ;
#203 = VERTEX_POINT ( 'NONE', #137 ) ;
#204 = CARTESIAN_POINT ( 'NONE',  ( 9.999999999999998224, 1.600000000000000089, -12.49999999999999822 ) ) ;
#205 = VECTOR ( 'NONE', #119, 1000.000000000000000 ) ;
#206 = DIRECTION ( 'NONE',  ( -0.000000000000000000, -1.000000000000000000, -0.000000000000000000 ) ) ;
#207 = EDGE_LOOP ( 'NONE', ( #191, #293, #291, #140 ) ) ;
#208 = DIRECTION ( 'NONE',  ( 0.000000000000000000, 1.000000000000000000, -0.000000000000000000 ) ) ;
#209 = CLOSED_SHELL ( 'NONE', ( #172, #230, #40, #10, #188, #22, #330, #107, #26, #262 ) ) ;
#210 = ORIENTED_EDGE ( 'NONE', *, *, #323, .F. ) ;
#211 = DIRECTION ( 'NONE',  ( 1.000000000000000000, 0.000000000000000000, -0.000000000000000000 ) ) ;
#212 = DIRECTION ( 'NONE',  ( -1.000000000000000000, -0.000000000000000000, -0.000000000000000000 ) ) ;
#213 = ORIENTED_EDGE ( 'NONE', *, *, #186, .T. ) ;
#214 = FACE_OUTER_BOUND ( 'NONE', #207, .T. ) ;
#215 = DIRECTION ( 'NONE',  ( -0.000000000000000000, -1.000000000000000000, -0.000000000000000000 ) ) ;
#216 = VERTEX_POINT ( 'NONE', #117 ) ;
#217 = EDGE_CURVE ( 'NONE', #326, #104, #49, .T. ) ;
#218 = VECTOR ( 'NONE', #68, 1000.000000000000000 ) ;
#219 =( NAMED_UNIT ( * ) PLANE_ANGLE_UNIT ( ) SI_UNIT ( $, .RADIAN. ) );
#220 = CARTESIAN_POINT ( 'NONE',  ( 30.00000000000000355, 1.600000000000000089, -7.500000000000000000 ) ) ;
#221 = CARTESIAN_POINT ( 'NONE',  ( 0.000000000000000000, 1.600000000000000089, -20.00000000000000000 ) ) ;
#222 = EDGE_LOOP ( 'NONE', ( #52, #159, #35, #252 ) ) ;
#223 = ORIENTED_EDGE ( 'NONE', *, *, #307, .F. ) ;
#224 = AXIS2_PLACEMENT_3D ( 'NONE', #152, #154, #306 ) ;
#225 = LINE ( 'NONE', #150, #218 ) ;
#226 = FACE_BOUND ( 'NONE', #46, .T. ) ;
#227 = DIRECTION ( 'NONE',  ( -0.000000000000000000, -1.000000000000000000, -0.000000000000000000 ) ) ;
#228 = DIRECTION ( 'NONE',  ( 0.000000000000000000, -0.000000000000000000, -1.000000000000000000 ) ) ;
#229 = ORIENTED_EDGE ( 'NONE', *, *, #88, .F. ) ;
#230 = ADVANCED_FACE ( 'NONE', ( #112 ), #283, .F. ) ;
#231 = CARTESIAN_POINT ( 'NONE',  ( 0.000000000000000000, -1.600000000000000089, 0.000000000000000000 ) ) ;
#232 = MANIFOLD_SOLID_BREP ( '\X2\0411043e0431044b0448043a0430\X0\-\X2\0412044b0442044f043d04430442044c\X0\1', #209 ) ;
#233 = FACE_OUTER_BOUND ( 'NONE', #144, .T. ) ;
#234 = EDGE_CURVE ( 'NONE', #82, #310, #242, .T. ) ;
#235 = DIRECTION ( 'NONE',  ( 0.000000000000000000, 0.000000000000000000, -1.000000000000000000 ) ) ;
#236 = ORIENTED_EDGE ( 'NONE', *, *, #81, .T. ) ;
#237 = DIRECTION ( 'NONE',  ( 0.000000000000000000, 0.000000000000000000, 1.000000000000000000 ) ) ;
#238 = VECTOR ( 'NONE', #34, 1000.000000000000000 ) ;
#239 = ORIENTED_EDGE ( 'NONE', *, *, #307, .T. ) ;
#240 = CARTESIAN_POINT ( 'NONE',  ( 40.00000000000000000, -1.600000000000000089, 0.000000000000000000 ) ) ;
#241 = DIRECTION ( 'NONE',  ( 0.000000000000000000, -1.000000000000000000, 0.000000000000000000 ) ) ;
#242 = LINE ( 'NONE', #115, #126 ) ;
#243 = CARTESIAN_POINT ( 'NONE',  ( 0.000000000000000000, -1.600000000000000089, 0.000000000000000000 ) ) ;
#244 = LINE ( 'NONE', #106, #259 ) ;
#245 = PRODUCT_RELATED_PRODUCT_CATEGORY ( 'part', '', ( #29 ) ) ;
#246 = ORIENTED_EDGE ( 'NONE', *, *, #323, .T. ) ;
#247 = AXIS2_PLACEMENT_3D ( 'NONE', #75, #165, #287 ) ;
#248 = ADVANCED_BREP_SHAPE_REPRESENTATION ( 'B511 \X2\0410043b044e043c0438043d0438043504320430044f\X0\ \X2\0442043e04400446043504320430044f\X0\ \X2\043704300433043b04430448043a0430\X0\ 20\X2\0445\X0\40 (\X2\044704350440043d0430044f\X0\)', ( #232, #105 ), #319 ) ;
#249 = VECTOR ( 'NONE', #123, 1000.000000000000000 ) ;
#250 = FACE_OUTER_BOUND ( 'NONE', #108, .T. ) ;
#251 = EDGE_CURVE ( 'NONE', #111, #82, #60, .T. ) ;
#252 = ORIENTED_EDGE ( 'NONE', *, *, #31, .F. ) ;
#253 = PRODUCT_CONTEXT ( 'NONE', #110, 'mechanical' ) ;
#254 = CARTESIAN_POINT ( 'NONE',  ( 40.00000000000000000, 1.600000000000000089, -20.00000000000000000 ) ) ;
#255 = CARTESIAN_POINT ( 'NONE',  ( 40.00000000000000000, 1.600000000000000089, 0.000000000000000000 ) ) ;
#256 = VERTEX_POINT ( 'NONE', #89 ) ;
#257 =( LENGTH_UNIT ( ) NAMED_UNIT ( * ) SI_UNIT ( .MILLI., .METRE. ) );
#258 = VECTOR ( 'NONE', #275, 1000.000000000000000 ) ;
#259 = VECTOR ( 'NONE', #13, 1000.000000000000000 ) ;
#260 = LINE ( 'NONE', #311, #27 ) ;
#261 = DIRECTION ( 'NONE',  ( -0.000000000000000000, -1.000000000000000000, -0.000000000000000000 ) ) ;
#262 = ADVANCED_FACE ( 'NONE', ( #315 ), #313, .F. ) ;
#263 = DIRECTION ( 'NONE',  ( 0.000000000000000000, 0.000000000000000000, -1.000000000000000000 ) ) ;
#264 = CARTESIAN_POINT ( 'NONE',  ( 30.00000000000000355, 1.600000000000000089, -12.49999999999999645 ) ) ;
#265 = ORIENTED_EDGE ( 'NONE', *, *, #312, .F. ) ;
#266 = EDGE_CURVE ( 'NONE', #256, #310, #225, .T. ) ;
#267 = AXIS2_PLACEMENT_3D ( 'NONE', #130, #139, #237 ) ;
#268 = VECTOR ( 'NONE', #212, 1000.000000000000000 ) ;
#269 = CARTESIAN_POINT ( 'NONE',  ( 0.000000000000000000, 1.600000000000000089, 0.000000000000000000 ) ) ;
#270 = VECTOR ( 'NONE', #162, 1000.000000000000000 ) ;
#271 = DIRECTION ( 'NONE',  ( 0.000000000000000000, 1.000000000000000000, -0.000000000000000000 ) ) ;
#272 = DIRECTION ( 'NONE',  ( 1.000000000000000000, 0.000000000000000000, 0.000000000000000000 ) ) ;
#273 = DIRECTION ( 'NONE',  ( 0.000000000000000000, 0.000000000000000000, -1.000000000000000000 ) ) ;
#274 = VERTEX_POINT ( 'NONE', #324 ) ;
#275 = DIRECTION ( 'NONE',  ( 0.000000000000000000, 0.000000000000000000, -1.000000000000000000 ) ) ;
#276 = AXIS2_PLACEMENT_3D ( 'NONE', #325, #273, #189 ) ;
#277 = ORIENTED_EDGE ( 'NONE', *, *, #281, .T. ) ;
#278 = CARTESIAN_POINT ( 'NONE',  ( 0.000000000000000000, 1.600000000000000089, -20.00000000000000000 ) ) ;
#279 = VERTEX_POINT ( 'NONE', #146 ) ;
#280 = CARTESIAN_POINT ( 'NONE',  ( 40.00000000000000000, -1.600000000000000089, 0.000000000000000000 ) ) ;
#281 = EDGE_CURVE ( 'NONE', #326, #279, #244, .T. ) ;
#282 = CIRCLE ( 'NONE', #178, 2.499999999999998668 ) ;
#283 = CYLINDRICAL_SURFACE ( 'NONE', #156, 2.500000000000000444 ) ;
#284 = UNCERTAINTY_MEASURE_WITH_UNIT (LENGTH_MEASURE( 1.000000000000000082E-05 ), #298, 'distance_accuracy_value', 'NONE');
#285 = VECTOR ( 'NONE', #206, 1000.000000000000000 ) ;
#286 = DIRECTION ( 'NONE',  ( 0.000000000000000000, 0.000000000000000000, -1.000000000000000000 ) ) ;
#287 = DIRECTION ( 'NONE',  ( 0.000000000000000000, 0.000000000000000000, -1.000000000000000000 ) ) ;
#288 = DIRECTION ( 'NONE',  ( 0.000000000000000000, 0.000000000000000000, -1.000000000000000000 ) ) ;
#289 = CIRCLE ( 'NONE', #267, 2.500000000000000444 ) ;
#290 = DIRECTION ( 'NONE',  ( 0.000000000000000000, 0.000000000000000000, -1.000000000000000000 ) ) ;
#291 = ORIENTED_EDGE ( 'NONE', *, *, #101, .F. ) ;
#292 = DIRECTION ( 'NONE',  ( 0.000000000000000000, 0.000000000000000000, -1.000000000000000000 ) ) ;
#293 = ORIENTED_EDGE ( 'NONE', *, *, #198, .F. ) ;
#294 = CARTESIAN_POINT ( 'NONE',  ( 40.00000000000000000, 1.600000000000000089, 0.000000000000000000 ) ) ;
#295 = DIRECTION ( 'NONE',  ( 0.000000000000000000, -0.000000000000000000, -1.000000000000000000 ) ) ;
#296 = ORIENTED_EDGE ( 'NONE', *, *, #101, .T. ) ;
#297 = AXIS2_PLACEMENT_3D ( 'NONE', #132, #2, #211 ) ;
#298 =( LENGTH_UNIT ( ) NAMED_UNIT ( * ) SI_UNIT ( .MILLI., .METRE. ) );
#299 = EDGE_CURVE ( 'NONE', #274, #20, #50, .T. ) ;
#300 = FACE_BOUND ( 'NONE', #42, .T. ) ;
#301 = EDGE_CURVE ( 'NONE', #310, #216, #70, .T. ) ;
#302 = EDGE_CURVE ( 'NONE', #173, #203, #282, .T. ) ;
#303 = AXIS2_PLACEMENT_3D ( 'NONE', #334, #208, #235 ) ;
#304 = CARTESIAN_POINT ( 'NONE',  ( 40.00000000000000000, 1.600000000000000089, -20.00000000000000000 ) ) ;
#305 = ORIENTED_EDGE ( 'NONE', *, *, #90, .T. ) ;
#306 = DIRECTION ( 'NONE',  ( 0.000000000000000000, 0.000000000000000000, 1.000000000000000000 ) ) ;
#307 = EDGE_CURVE ( 'NONE', #25, #30, #17, .T. ) ;
#308 = ORIENTED_EDGE ( 'NONE', *, *, #31, .T. ) ;
#309 = SURFACE_STYLE_FILL_AREA ( #56 ) ;
#310 = VERTEX_POINT ( 'NONE', #321 ) ;
#311 = CARTESIAN_POINT ( 'NONE',  ( 0.000000000000000000, 1.600000000000000089, 0.000000000000000000 ) ) ;
#312 = EDGE_CURVE ( 'NONE', #104, #317, #97, .T. ) ;
#313 = CYLINDRICAL_SURFACE ( 'NONE', #169, 2.499999999999998668 ) ;
#314 = PRESENTATION_STYLE_ASSIGNMENT (( #160 ) ) ;
#315 = FACE_OUTER_BOUND ( 'NONE', #91, .T. ) ;
#316 =( NAMED_UNIT ( * ) PLANE_ANGLE_UNIT ( ) SI_UNIT ( $, .RADIAN. ) );
#317 = VERTEX_POINT ( 'NONE', #74 ) ;
#318 =( GEOMETRIC_REPRESENTATION_CONTEXT ( 3 ) GLOBAL_UNCERTAINTY_ASSIGNED_CONTEXT ( ( #197 ) ) GLOBAL_UNIT_ASSIGNED_CONTEXT ( ( #257, #219, #7 ) ) REPRESENTATION_CONTEXT ( 'NONE', 'WORKASPACE' ) );
#319 =( GEOMETRIC_REPRESENTATION_CONTEXT ( 3 ) GLOBAL_UNCERTAINTY_ASSIGNED_CONTEXT ( ( #284 ) ) GLOBAL_UNIT_ASSIGNED_CONTEXT ( ( #298, #316, #145 ) ) REPRESENTATION_CONTEXT ( 'NONE', 'WORKASPACE' ) );
#320 = EDGE_LOOP ( 'NONE', ( #305, #55 ) ) ;
#321 = CARTESIAN_POINT ( 'NONE',  ( 0.000000000000000000, -1.600000000000000089, -20.00000000000000000 ) ) ;
#322 = FACE_BOUND ( 'NONE', #179, .T. ) ;
#323 = EDGE_CURVE ( 'NONE', #111, #256, #170, .T. ) ;
#324 = CARTESIAN_POINT ( 'NONE',  ( 30.00000000000000355, 1.600000000000000089, -12.49999999999999645 ) ) ;
#325 = CARTESIAN_POINT ( 'NONE',  ( 0.000000000000000000, 1.600000000000000089, 0.000000000000000000 ) ) ;
#326 = VERTEX_POINT ( 'NONE', #194 ) ;
#327 = CIRCLE ( 'NONE', #66, 2.500000000000000444 ) ;
#328 = DIRECTION ( 'NONE',  ( -1.000000000000000000, 0.000000000000000000, 0.000000000000000000 ) ) ;
#329 = FACE_OUTER_BOUND ( 'NONE', #171, .T. ) ;
#330 = ADVANCED_FACE ( 'NONE', ( #48 ), #201, .F. ) ;
#331 = ORIENTED_EDGE ( 'NONE', *, *, #61, .F. ) ;
#332 = DIRECTION ( 'NONE',  ( 0.000000000000000000, 1.000000000000000000, -0.000000000000000000 ) ) ;
#333 = SHAPE_DEFINITION_REPRESENTATION ( #38, #248 ) ;
#334 = CARTESIAN_POINT ( 'NONE',  ( 30.00000000000000355, 1.600000000000000089, -9.999999999999998224 ) ) ;
#335 = CIRCLE ( 'NONE', #303, 2.499999999999998668 ) ;
ENDSEC;
END-ISO-10303-21;
