ISO-10303-21;
HEADER;
FILE_DESCRIPTION (( 'STEP AP214' ),
    '1' );
FILE_NAME ('PR4020S3X Ïðîôèëü àëþìèíèåâûé, ïðÿìîóãîëüíèê 40x20x2 (Áåç ïîêðûòèÿ).STEP',
    '2025-02-18T07:22:47',
    ( '' ),
    ( '' ),
    'SwSTEP 2.0',
    'SolidWorks 2024',
    '' );
FILE_SCHEMA (( 'AUTOMOTIVE_DESIGN' ));
ENDSEC;

DATA;
#1 = VERTEX_POINT ( 'NONE', #146 ) ;
#2 = CARTESIAN_POINT ( 'NONE',  ( -6.999999999999999112, -17.00000000000000000, 1000.000000000000000 ) ) ;
#3 = CARTESIAN_POINT ( 'NONE',  ( -10.00000000000000000, 20.00000000000000000, 0.000000000000000000 ) ) ;
#4 = CARTESIAN_POINT ( 'NONE',  ( 10.00000000000000000, -20.00000000000000000, 1000.000000000000000 ) ) ;
#5 = EDGE_CURVE ( 'NONE', #145, #20, #170, .T. ) ;
#6 = DIRECTION ( 'NONE',  ( 1.000000000000000000, 0.000000000000000000, 0.000000000000000000 ) ) ;
#7 = VECTOR ( 'NONE', #92, 1000.000000000000000 ) ;
#8 = STYLED_ITEM ( 'NONE', ( #181 ), #127 ) ;
#9 = LINE ( 'NONE', #305, #246 ) ;
#10 = LINE ( 'NONE', #278, #192 ) ;
#11 = EDGE_CURVE ( 'NONE', #39, #219, #97, .T. ) ;
#12 = APPLICATION_PROTOCOL_DEFINITION ( 'draft international standard', 'automotive_design', 1998, #74 ) ;
#13 = CARTESIAN_POINT ( 'NONE',  ( -6.999999999999999112, -17.00000000000000000, 0.000000000000000000 ) ) ;
#14 = VERTEX_POINT ( 'NONE', #24 ) ;
#15 = VECTOR ( 'NONE', #251, 1000.000000000000000 ) ;
#16 = PLANE ( 'NONE',  #201 ) ;
#17 = ORIENTED_EDGE ( 'NONE', *, *, #320, .F. ) ;
#18 = CARTESIAN_POINT ( 'NONE',  ( -6.999999999999999112, 17.00000000000000000, 0.000000000000000000 ) ) ;
#19 = FACE_OUTER_BOUND ( 'NONE', #169, .T. ) ;
#20 = VERTEX_POINT ( 'NONE', #72 ) ;
#21 = ORIENTED_EDGE ( 'NONE', *, *, #310, .T. ) ;
#22 = ADVANCED_FACE ( 'NONE', ( #124, #269 ), #321, .T. ) ;
#23 = ORIENTED_EDGE ( 'NONE', *, *, #157, .F. ) ;
#24 = CARTESIAN_POINT ( 'NONE',  ( 7.000000000000013323, 17.00000000000000000, 0.000000000000000000 ) ) ;
#25 = VECTOR ( 'NONE', #148, 1000.000000000000000 ) ;
#26 = EDGE_LOOP ( 'NONE', ( #101, #296, #319, #152 ) ) ;
#27 = VERTEX_POINT ( 'NONE', #99 ) ;
#28 = DIRECTION ( 'NONE',  ( 1.000000000000000000, 0.000000000000000000, 0.000000000000000000 ) ) ;
#29 = ADVANCED_FACE ( 'NONE', ( #76 ), #50, .F. ) ;
#30 =( NAMED_UNIT ( * ) SI_UNIT ( $, .STERADIAN. ) SOLID_ANGLE_UNIT ( ) );
#31 =( GEOMETRIC_REPRESENTATION_CONTEXT ( 3 ) GLOBAL_UNCERTAINTY_ASSIGNED_CONTEXT ( ( #175 ) ) GLOBAL_UNIT_ASSIGNED_CONTEXT ( ( #153, #276, #30 ) ) REPRESENTATION_CONTEXT ( 'NONE', 'WORKASPACE' ) );
#32 = CARTESIAN_POINT ( 'NONE',  ( 10.00000000000000000, 20.00000000000000000, 1000.000000000000000 ) ) ;
#33 = CARTESIAN_POINT ( 'NONE',  ( 10.00000000000000000, -20.00000000000000000, 1000.000000000000000 ) ) ;
#34 = VECTOR ( 'NONE', #267, 1000.000000000000000 ) ;
#35 = CARTESIAN_POINT ( 'NONE',  ( -10.00000000000000000, -20.00000000000000000, 1000.000000000000000 ) ) ;
#36 = LINE ( 'NONE', #228, #15 ) ;
#37 = LINE ( 'NONE', #285, #217 ) ;
#38 = FACE_BOUND ( 'NONE', #190, .T. ) ;
#39 = VERTEX_POINT ( 'NONE', #204 ) ;
#40 =( GEOMETRIC_REPRESENTATION_CONTEXT ( 3 ) GLOBAL_UNCERTAINTY_ASSIGNED_CONTEXT ( ( #73 ) ) GLOBAL_UNIT_ASSIGNED_CONTEXT ( ( #57, #134, #275 ) ) REPRESENTATION_CONTEXT ( 'NONE', 'WORKASPACE' ) );
#41 = DIRECTION ( 'NONE',  ( 0.000000000000000000, 0.000000000000000000, -1.000000000000000000 ) ) ;
#42 = ADVANCED_BREP_SHAPE_REPRESENTATION ( 'PR4020S3X \X2\041f0440043e04440438043b044c\X0\ \X2\0430043b044e043c0438043d043804350432044b0439\X0\, \X2\043f0440044f043c043e04430433043e043b044c043d0438043a\X0\ 40x20x2 (\X2\041104350437\X0\ \X2\043f043e043a0440044b04420438044f\X0\)', ( #127, #260 ), #40 ) ;
#43 = VERTEX_POINT ( 'NONE', #55 ) ;
#44 = ADVANCED_FACE ( 'NONE', ( #81 ), #130, .T. ) ;
#45 = CARTESIAN_POINT ( 'NONE',  ( 10.00000000000000000, -20.00000000000000000, 0.000000000000000000 ) ) ;
#46 = EDGE_LOOP ( 'NONE', ( #272, #259, #171, #100 ) ) ;
#47 = EDGE_LOOP ( 'NONE', ( #313, #298, #193, #48 ) ) ;
#48 = ORIENTED_EDGE ( 'NONE', *, *, #112, .T. ) ;
#49 = LINE ( 'NONE', #164, #67 ) ;
#50 = PLANE ( 'NONE',  #94 ) ;
#51 = DIRECTION ( 'NONE',  ( -1.000000000000000000, 0.000000000000000000, -0.000000000000000000 ) ) ;
#52 = ORIENTED_EDGE ( 'NONE', *, *, #245, .T. ) ;
#53 = FACE_OUTER_BOUND ( 'NONE', #102, .T. ) ;
#54 = VECTOR ( 'NONE', #113, 1000.000000000000000 ) ;
#55 = CARTESIAN_POINT ( 'NONE',  ( -10.00000000000000000, 20.00000000000000000, 1000.000000000000000 ) ) ;
#56 = EDGE_CURVE ( 'NONE', #172, #14, #200, .T. ) ;
#57 =( LENGTH_UNIT ( ) NAMED_UNIT ( * ) SI_UNIT ( .MILLI., .METRE. ) );
#58 = DIRECTION ( 'NONE',  ( 0.000000000000000000, -0.000000000000000000, 1.000000000000000000 ) ) ;
#59 = DIRECTION ( 'NONE',  ( 0.000000000000000000, -1.000000000000000000, 0.000000000000000000 ) ) ;
#60 = DIRECTION ( 'NONE',  ( 0.000000000000000000, -0.000000000000000000, 1.000000000000000000 ) ) ;
#61 = CARTESIAN_POINT ( 'NONE',  ( 7.000000000000013323, -17.00000000000000000, 1000.000000000000000 ) ) ;
#62 = DIRECTION ( 'NONE',  ( -1.000000000000000000, 0.000000000000000000, 0.000000000000000000 ) ) ;
#63 = ORIENTED_EDGE ( 'NONE', *, *, #273, .T. ) ;
#64 = DIRECTION ( 'NONE',  ( -1.000000000000000000, 0.000000000000000000, -0.000000000000000000 ) ) ;
#65 = EDGE_CURVE ( 'NONE', #268, #20, #283, .T. ) ;
#66 = ORIENTED_EDGE ( 'NONE', *, *, #214, .F. ) ;
#67 = VECTOR ( 'NONE', #261, 1000.000000000000000 ) ;
#68 = DIRECTION ( 'NONE',  ( -0.000000000000000000, -0.000000000000000000, -1.000000000000000000 ) ) ;
#69 = ORIENTED_EDGE ( 'NONE', *, *, #299, .F. ) ;
#70 = ORIENTED_EDGE ( 'NONE', *, *, #103, .F. ) ;
#71 = ADVANCED_FACE ( 'NONE', ( #106 ), #108, .T. ) ;
#72 = CARTESIAN_POINT ( 'NONE',  ( -6.999999999999999112, -17.00000000000000000, 0.000000000000000000 ) ) ;
#73 = UNCERTAINTY_MEASURE_WITH_UNIT (LENGTH_MEASURE( 1.000000000000000082E-05 ), #57, 'distance_accuracy_value', 'NONE');
#74 = APPLICATION_CONTEXT ( 'automotive_design' ) ;
#75 = ORIENTED_EDGE ( 'NONE', *, *, #65, .T. ) ;
#76 = FACE_OUTER_BOUND ( 'NONE', #95, .T. ) ;
#77 = VECTOR ( 'NONE', #83, 1000.000000000000000 ) ;
#78 = ORIENTED_EDGE ( 'NONE', *, *, #273, .F. ) ;
#79 = ORIENTED_EDGE ( 'NONE', *, *, #147, .F. ) ;
#80 = CLOSED_SHELL ( 'NONE', ( #239, #22, #222, #235, #88, #29, #44, #199, #71, #135 ) ) ;
#81 = FACE_OUTER_BOUND ( 'NONE', #237, .T. ) ;
#82 = CARTESIAN_POINT ( 'NONE',  ( -6.999999999999999112, 17.00000000000000000, 1000.000000000000000 ) ) ;
#83 = DIRECTION ( 'NONE',  ( -0.000000000000000000, -0.000000000000000000, -1.000000000000000000 ) ) ;
#84 = CARTESIAN_POINT ( 'NONE',  ( -6.999999999999999112, -17.00000000000000000, 0.000000000000000000 ) ) ;
#85 = PLANE ( 'NONE',  #117 ) ;
#86 = LINE ( 'NONE', #144, #252 ) ;
#87 = CARTESIAN_POINT ( 'NONE',  ( 7.000000000000013323, -17.00000000000000000, 1000.000000000000000 ) ) ;
#88 = ADVANCED_FACE ( 'NONE', ( #53 ), #178, .F. ) ;
#89 = CARTESIAN_POINT ( 'NONE',  ( 0.000000000000000000, 0.000000000000000000, 1000.000000000000000 ) ) ;
#90 = ORIENTED_EDGE ( 'NONE', *, *, #214, .T. ) ;
#91 = VECTOR ( 'NONE', #185, 1000.000000000000000 ) ;
#92 = DIRECTION ( 'NONE',  ( 1.000000000000000000, 0.000000000000000000, 0.000000000000000000 ) ) ;
#93 = EDGE_LOOP ( 'NONE', ( #79, #195, #294, #247 ) ) ;
#94 = AXIS2_PLACEMENT_3D ( 'NONE', #297, #281, #60 ) ;
#95 = EDGE_LOOP ( 'NONE', ( #315, #241, #167, #191 ) ) ;
#96 = EDGE_CURVE ( 'NONE', #1, #39, #104, .T. ) ;
#97 = LINE ( 'NONE', #121, #25 ) ;
#98 = VECTOR ( 'NONE', #110, 1000.000000000000000 ) ;
#99 = CARTESIAN_POINT ( 'NONE',  ( -6.999999999999999112, 17.00000000000000000, 1000.000000000000000 ) ) ;
#100 = ORIENTED_EDGE ( 'NONE', *, *, #5, .T. ) ;
#101 = ORIENTED_EDGE ( 'NONE', *, *, #310, .F. ) ;
#102 = EDGE_LOOP ( 'NONE', ( #232, #189, #218, #187 ) ) ;
#103 = EDGE_CURVE ( 'NONE', #323, #265, #221, .T. ) ;
#104 = LINE ( 'NONE', #35, #227 ) ;
#105 = AXIS2_PLACEMENT_3D ( 'NONE', #61, #166, #312 ) ;
#106 = FACE_OUTER_BOUND ( 'NONE', #93, .T. ) ;
#107 = VECTOR ( 'NONE', #300, 1000.000000000000000 ) ;
#108 = PLANE ( 'NONE',  #125 ) ;
#109 = DIRECTION ( 'NONE',  ( -0.000000000000000000, -0.000000000000000000, -1.000000000000000000 ) ) ;
#110 = DIRECTION ( 'NONE',  ( 0.000000000000000000, 1.000000000000000000, 0.000000000000000000 ) ) ;
#111 = PLANE ( 'NONE',  #122 ) ;
#112 = EDGE_CURVE ( 'NONE', #1, #126, #9, .T. ) ;
#113 = DIRECTION ( 'NONE',  ( -0.000000000000000000, -1.000000000000000000, -0.000000000000000000 ) ) ;
#114 = ORIENTED_EDGE ( 'NONE', *, *, #245, .F. ) ;
#115 = DIRECTION ( 'NONE',  ( 0.000000000000000000, 1.000000000000000000, 0.000000000000000000 ) ) ;
#116 = VERTEX_POINT ( 'NONE', #253 ) ;
#117 = AXIS2_PLACEMENT_3D ( 'NONE', #224, #6, #41 ) ;
#118 = DIRECTION ( 'NONE',  ( -1.000000000000000000, -0.000000000000000000, -0.000000000000000000 ) ) ;
#119 = ORIENTED_EDGE ( 'NONE', *, *, #168, .T. ) ;
#120 = APPLICATION_CONTEXT ( 'automotive_design' ) ;
#121 = CARTESIAN_POINT ( 'NONE',  ( -10.00000000000000000, -20.00000000000000000, 0.000000000000000000 ) ) ;
#122 = AXIS2_PLACEMENT_3D ( 'NONE', #287, #62, #188 ) ;
#123 = EDGE_CURVE ( 'NONE', #145, #150, #197, .T. ) ;
#124 = FACE_OUTER_BOUND ( 'NONE', #128, .T. ) ;
#125 = AXIS2_PLACEMENT_3D ( 'NONE', #82, #59, #308 ) ;
#126 = VERTEX_POINT ( 'NONE', #4 ) ;
#127 = MANIFOLD_SOLID_BREP ( '\X2\0411043e0431044b0448043a0430\X0\-\X2\0412044b0442044f043d04430442044c\X0\1', #80 ) ;
#128 = EDGE_LOOP ( 'NONE', ( #114, #262, #17, #78 ) ) ;
#129 = EDGE_CURVE ( 'NONE', #27, #268, #302, .T. ) ;
#130 = PLANE ( 'NONE',  #271 ) ;
#131 = PRODUCT_DEFINITION_CONTEXT ( 'detailed design', #74, 'design' ) ;
#132 = FACE_OUTER_BOUND ( 'NONE', #46, .T. ) ;
#133 = PRESENTATION_LAYER_ASSIGNMENT (  '', '', ( #8 ) ) ;
#134 =( NAMED_UNIT ( * ) PLANE_ANGLE_UNIT ( ) SI_UNIT ( $, .RADIAN. ) );
#135 = ADVANCED_FACE ( 'NONE', ( #132 ), #85, .T. ) ;
#136 = CARTESIAN_POINT ( 'NONE',  ( -6.999999999999999112, -17.00000000000000000, 1000.000000000000000 ) ) ;
#137 = LINE ( 'NONE', #3, #233 ) ;
#138 = FILL_AREA_STYLE_COLOUR ( '', #151 ) ;
#139 = LINE ( 'NONE', #250, #277 ) ;
#140 = PLANE ( 'NONE',  #105 ) ;
#141 = CARTESIAN_POINT ( 'NONE',  ( 7.000000000000013323, -17.00000000000000000, 1000.000000000000000 ) ) ;
#142 = CARTESIAN_POINT ( 'NONE',  ( 7.000000000000013323, -17.00000000000000000, 1000.000000000000000 ) ) ;
#143 = ORIENTED_EDGE ( 'NONE', *, *, #5, .F. ) ;
#144 = CARTESIAN_POINT ( 'NONE',  ( -6.999999999999999112, 17.00000000000000000, 0.000000000000000000 ) ) ;
#145 = VERTEX_POINT ( 'NONE', #211 ) ;
#146 = CARTESIAN_POINT ( 'NONE',  ( -10.00000000000000000, -20.00000000000000000, 1000.000000000000000 ) ) ;
#147 = EDGE_CURVE ( 'NONE', #14, #268, #86, .T. ) ;
#148 = DIRECTION ( 'NONE',  ( 1.000000000000000000, 0.000000000000000000, 0.000000000000000000 ) ) ;
#149 = VECTOR ( 'NONE', #68, 1000.000000000000000 ) ;
#150 = VERTEX_POINT ( 'NONE', #87 ) ;
#151 = COLOUR_RGB ( '',0.8666666666666666963, 0.9098039215686274384, 1.000000000000000000 ) ;
#152 = ORIENTED_EDGE ( 'NONE', *, *, #56, .T. ) ;
#153 =( LENGTH_UNIT ( ) NAMED_UNIT ( * ) SI_UNIT ( .MILLI., .METRE. ) );
#154 = VECTOR ( 'NONE', #158, 1000.000000000000000 ) ;
#155 = APPLICATION_PROTOCOL_DEFINITION ( 'draft international standard', 'automotive_design', 1998, #120 ) ;
#156 = DIRECTION ( 'NONE',  ( 0.000000000000000000, 0.000000000000000000, -1.000000000000000000 ) ) ;
#157 = EDGE_CURVE ( 'NONE', #150, #172, #205, .T. ) ;
#158 = DIRECTION ( 'NONE',  ( 0.000000000000000000, 1.000000000000000000, 0.000000000000000000 ) ) ;
#159 = CARTESIAN_POINT ( 'NONE',  ( 7.000000000000013323, 17.00000000000000000, 1000.000000000000000 ) ) ;
#160 = DIRECTION ( 'NONE',  ( -0.000000000000000000, -1.000000000000000000, -0.000000000000000000 ) ) ;
#161 = EDGE_CURVE ( 'NONE', #323, #43, #317, .T. ) ;
#162 = DIRECTION ( 'NONE',  ( -0.000000000000000000, -0.000000000000000000, -1.000000000000000000 ) ) ;
#163 = DIRECTION ( 'NONE',  ( 0.000000000000000000, -1.000000000000000000, 0.000000000000000000 ) ) ;
#164 = CARTESIAN_POINT ( 'NONE',  ( 10.00000000000000000, -20.00000000000000000, 0.000000000000000000 ) ) ;
#165 = VECTOR ( 'NONE', #109, 1000.000000000000000 ) ;
#166 = DIRECTION ( 'NONE',  ( -1.000000000000000000, 0.000000000000000000, 0.000000000000000000 ) ) ;
#167 = ORIENTED_EDGE ( 'NONE', *, *, #112, .F. ) ;
#168 = EDGE_CURVE ( 'NONE', #126, #219, #318, .T. ) ;
#169 = EDGE_LOOP ( 'NONE', ( #63, #290, #293, #194 ) ) ;
#170 = LINE ( 'NONE', #196, #34 ) ;
#171 = ORIENTED_EDGE ( 'NONE', *, *, #299, .T. ) ;
#172 = VERTEX_POINT ( 'NONE', #264 ) ;
#173 = VECTOR ( 'NONE', #160, 1000.000000000000000 ) ;
#174 = CARTESIAN_POINT ( 'NONE',  ( -10.00000000000000000, -20.00000000000000000, 1000.000000000000000 ) ) ;
#175 = UNCERTAINTY_MEASURE_WITH_UNIT (LENGTH_MEASURE( 1.000000000000000082E-05 ), #153, 'distance_accuracy_value', 'NONE');
#176 = SURFACE_STYLE_FILL_AREA ( #180 ) ;
#177 = LINE ( 'NONE', #225, #98 ) ;
#178 = PLANE ( 'NONE',  #304 ) ;
#179 = EDGE_CURVE ( 'NONE', #43, #1, #256, .T. ) ;
#180 = FILL_AREA_STYLE ('',( #138 ) ) ;
#181 = PRESENTATION_STYLE_ASSIGNMENT (( #229 ) ) ;
#182 = EDGE_CURVE ( 'NONE', #172, #27, #37, .T. ) ;
#183 = CARTESIAN_POINT ( 'NONE',  ( 10.00000000000000000, -20.00000000000000000, 1000.000000000000000 ) ) ;
#184 = PRODUCT ( 'PR4020S3X \X2\041f0440043e04440438043b044c\X0\ \X2\0430043b044e043c0438043d043804350432044b0439\X0\, \X2\043f0440044f043c043e04430433043e043b044c043d0438043a\X0\ 40x20x2 (\X2\041104350437\X0\ \X2\043f043e043a0440044b04420438044f\X0\)', 'PR4020S3X \X2\041f0440043e04440438043b044c\X0\ \X2\0430043b044e043c0438043d043804350432044b0439\X0\, \X2\043f0440044f043c043e04430433043e043b044c043d0438043a\X0\ 40x20x2 (\X2\041104350437\X0\ \X2\043f043e043a0440044b04420438044f\X0\)', '', ( #280 ) ) ;
#185 = DIRECTION ( 'NONE',  ( -1.000000000000000000, -0.000000000000000000, -0.000000000000000000 ) ) ;
#186 = CARTESIAN_POINT ( 'NONE',  ( -10.00000000000000000, 20.00000000000000000, 1000.000000000000000 ) ) ;
#187 = ORIENTED_EDGE ( 'NONE', *, *, #306, .T. ) ;
#188 = DIRECTION ( 'NONE',  ( 0.000000000000000000, 0.000000000000000000, 1.000000000000000000 ) ) ;
#189 = ORIENTED_EDGE ( 'NONE', *, *, #96, .F. ) ;
#190 = EDGE_LOOP ( 'NONE', ( #209, #69, #240, #23 ) ) ;
#191 = ORIENTED_EDGE ( 'NONE', *, *, #96, .T. ) ;
#192 = VECTOR ( 'NONE', #206, 1000.000000000000000 ) ;
#193 = ORIENTED_EDGE ( 'NONE', *, *, #179, .T. ) ;
#194 = ORIENTED_EDGE ( 'NONE', *, *, #103, .T. ) ;
#195 = ORIENTED_EDGE ( 'NONE', *, *, #56, .F. ) ;
#196 = CARTESIAN_POINT ( 'NONE',  ( -6.999999999999999112, -17.00000000000000000, 1000.000000000000000 ) ) ;
#197 = LINE ( 'NONE', #136, #107 ) ;
#198 = DIRECTION ( 'NONE',  ( -1.000000000000000000, -0.000000000000000000, -0.000000000000000000 ) ) ;
#199 = ADVANCED_FACE ( 'NONE', ( #238 ), #140, .T. ) ;
#200 = LINE ( 'NONE', #159, #213 ) ;
#201 = AXIS2_PLACEMENT_3D ( 'NONE', #89, #289, #64 ) ;
#202 = CARTESIAN_POINT ( 'NONE',  ( -6.999999999999999112, 17.00000000000000000, 1000.000000000000000 ) ) ;
#203 = CARTESIAN_POINT ( 'NONE',  ( 0.000000000000000000, 0.000000000000000000, 0.000000000000000000 ) ) ;
#204 = CARTESIAN_POINT ( 'NONE',  ( -10.00000000000000000, -20.00000000000000000, 0.000000000000000000 ) ) ;
#205 = LINE ( 'NONE', #142, #223 ) ;
#206 = DIRECTION ( 'NONE',  ( -0.000000000000000000, -0.000000000000000000, -1.000000000000000000 ) ) ;
#207 = LINE ( 'NONE', #141, #149 ) ;
#208 = DIRECTION ( 'NONE',  ( -1.000000000000000000, -0.000000000000000000, -0.000000000000000000 ) ) ;
#209 = ORIENTED_EDGE ( 'NONE', *, *, #123, .F. ) ;
#210 = EDGE_CURVE ( 'NONE', #150, #288, #207, .T. ) ;
#211 = CARTESIAN_POINT ( 'NONE',  ( -6.999999999999999112, -17.00000000000000000, 1000.000000000000000 ) ) ;
#212 = FACE_OUTER_BOUND ( 'NONE', #220, .T. ) ;
#213 = VECTOR ( 'NONE', #279, 1000.000000000000000 ) ;
#214 = EDGE_CURVE ( 'NONE', #20, #288, #231, .T. ) ;
#215 = ORIENTED_EDGE ( 'NONE', *, *, #123, .T. ) ;
#216 = EDGE_LOOP ( 'NONE', ( #75, #90, #21, #243 ) ) ;
#217 = VECTOR ( 'NONE', #118, 1000.000000000000000 ) ;
#218 = ORIENTED_EDGE ( 'NONE', *, *, #179, .F. ) ;
#219 = VERTEX_POINT ( 'NONE', #45 ) ;
#220 = EDGE_LOOP ( 'NONE', ( #52, #70, #248, #119 ) ) ;
#221 = LINE ( 'NONE', #32, #165 ) ;
#222 = ADVANCED_FACE ( 'NONE', ( #212 ), #111, .F. ) ;
#223 = VECTOR ( 'NONE', #115, 1000.000000000000000 ) ;
#224 = CARTESIAN_POINT ( 'NONE',  ( -6.999999999999999112, -17.00000000000000000, 1000.000000000000000 ) ) ;
#225 = CARTESIAN_POINT ( 'NONE',  ( 7.000000000000013323, -17.00000000000000000, 0.000000000000000000 ) ) ;
#226 = SURFACE_SIDE_STYLE ('',( #176 ) ) ;
#227 = VECTOR ( 'NONE', #274, 1000.000000000000000 ) ;
#228 = CARTESIAN_POINT ( 'NONE',  ( -6.999999999999999112, -17.00000000000000000, 1000.000000000000000 ) ) ;
#229 = SURFACE_STYLE_USAGE ( .BOTH. , #226 ) ;
#230 = DIRECTION ( 'NONE',  ( -0.000000000000000000, -1.000000000000000000, -0.000000000000000000 ) ) ;
#231 = LINE ( 'NONE', #13, #7 ) ;
#232 = ORIENTED_EDGE ( 'NONE', *, *, #320, .T. ) ;
#233 = VECTOR ( 'NONE', #198, 1000.000000000000000 ) ;
#234 = CARTESIAN_POINT ( 'NONE',  ( -10.00000000000000000, 20.00000000000000000, 1000.000000000000000 ) ) ;
#235 = ADVANCED_FACE ( 'NONE', ( #19 ), #292, .F. ) ;
#236 = CARTESIAN_POINT ( 'NONE',  ( 10.00000000000000000, 20.00000000000000000, 0.000000000000000000 ) ) ;
#237 = EDGE_LOOP ( 'NONE', ( #66, #143, #215, #242 ) ) ;
#238 = FACE_OUTER_BOUND ( 'NONE', #26, .T. ) ;
#239 = ADVANCED_FACE ( 'NONE', ( #257, #38 ), #16, .F. ) ;
#240 = ORIENTED_EDGE ( 'NONE', *, *, #182, .F. ) ;
#241 = ORIENTED_EDGE ( 'NONE', *, *, #168, .F. ) ;
#242 = ORIENTED_EDGE ( 'NONE', *, *, #210, .T. ) ;
#243 = ORIENTED_EDGE ( 'NONE', *, *, #147, .T. ) ;
#244 = AXIS2_PLACEMENT_3D ( 'NONE', #186, #163, #314 ) ;
#245 = EDGE_CURVE ( 'NONE', #219, #265, #49, .T. ) ;
#246 = VECTOR ( 'NONE', #28, 1000.000000000000000 ) ;
#247 = ORIENTED_EDGE ( 'NONE', *, *, #129, .T. ) ;
#248 = ORIENTED_EDGE ( 'NONE', *, *, #286, .F. ) ;
#249 = DIRECTION ( 'NONE',  ( 1.000000000000000000, 0.000000000000000000, 0.000000000000000000 ) ) ;
#250 = CARTESIAN_POINT ( 'NONE',  ( -10.00000000000000000, -20.00000000000000000, 0.000000000000000000 ) ) ;
#251 = DIRECTION ( 'NONE',  ( -0.000000000000000000, -1.000000000000000000, -0.000000000000000000 ) ) ;
#252 = VECTOR ( 'NONE', #208, 1000.000000000000000 ) ;
#253 = CARTESIAN_POINT ( 'NONE',  ( -10.00000000000000000, 20.00000000000000000, 0.000000000000000000 ) ) ;
#254 = DIRECTION ( 'NONE',  ( 0.000000000000000000, 1.000000000000000000, 0.000000000000000000 ) ) ;
#255 = LINE ( 'NONE', #33, #154 ) ;
#256 = LINE ( 'NONE', #309, #54 ) ;
#257 = FACE_OUTER_BOUND ( 'NONE', #47, .T. ) ;
#258 = PRODUCT_DEFINITION ( 'UNKNOWN', '', #303, #131 ) ;
#259 = ORIENTED_EDGE ( 'NONE', *, *, #129, .F. ) ;
#260 = AXIS2_PLACEMENT_3D ( 'NONE', #203, #301, #284 ) ;
#261 = DIRECTION ( 'NONE',  ( 0.000000000000000000, 1.000000000000000000, 0.000000000000000000 ) ) ;
#262 = ORIENTED_EDGE ( 'NONE', *, *, #11, .F. ) ;
#263 = AXIS2_PLACEMENT_3D ( 'NONE', #322, #270, #51 ) ;
#264 = CARTESIAN_POINT ( 'NONE',  ( 7.000000000000013323, 17.00000000000000000, 1000.000000000000000 ) ) ;
#265 = VERTEX_POINT ( 'NONE', #236 ) ;
#266 = PRODUCT_DEFINITION_SHAPE ( 'NONE', 'NONE',  #258 ) ;
#267 = DIRECTION ( 'NONE',  ( -0.000000000000000000, -0.000000000000000000, -1.000000000000000000 ) ) ;
#268 = VERTEX_POINT ( 'NONE', #18 ) ;
#269 = FACE_BOUND ( 'NONE', #216, .T. ) ;
#270 = DIRECTION ( 'NONE',  ( 0.000000000000000000, 0.000000000000000000, -1.000000000000000000 ) ) ;
#271 = AXIS2_PLACEMENT_3D ( 'NONE', #2, #254, #58 ) ;
#272 = ORIENTED_EDGE ( 'NONE', *, *, #65, .F. ) ;
#273 = EDGE_CURVE ( 'NONE', #265, #116, #137, .T. ) ;
#274 = DIRECTION ( 'NONE',  ( -0.000000000000000000, -0.000000000000000000, -1.000000000000000000 ) ) ;
#275 =( NAMED_UNIT ( * ) SI_UNIT ( $, .STERADIAN. ) SOLID_ANGLE_UNIT ( ) );
#276 =( NAMED_UNIT ( * ) PLANE_ANGLE_UNIT ( ) SI_UNIT ( $, .RADIAN. ) );
#277 = VECTOR ( 'NONE', #230, 1000.000000000000000 ) ;
#278 = CARTESIAN_POINT ( 'NONE',  ( -10.00000000000000000, 20.00000000000000000, 1000.000000000000000 ) ) ;
#279 = DIRECTION ( 'NONE',  ( -0.000000000000000000, -0.000000000000000000, -1.000000000000000000 ) ) ;
#280 = PRODUCT_CONTEXT ( 'NONE', #120, 'mechanical' ) ;
#281 = DIRECTION ( 'NONE',  ( 0.000000000000000000, 1.000000000000000000, 0.000000000000000000 ) ) ;
#282 = CARTESIAN_POINT ( 'NONE',  ( 7.000000000000013323, -17.00000000000000000, 0.000000000000000000 ) ) ;
#283 = LINE ( 'NONE', #84, #173 ) ;
#284 = DIRECTION ( 'NONE',  ( 1.000000000000000000, 0.000000000000000000, 0.000000000000000000 ) ) ;
#285 = CARTESIAN_POINT ( 'NONE',  ( -6.999999999999999112, 17.00000000000000000, 1000.000000000000000 ) ) ;
#286 = EDGE_CURVE ( 'NONE', #126, #323, #255, .T. ) ;
#287 = CARTESIAN_POINT ( 'NONE',  ( 10.00000000000000000, -20.00000000000000000, 1000.000000000000000 ) ) ;
#288 = VERTEX_POINT ( 'NONE', #282 ) ;
#289 = DIRECTION ( 'NONE',  ( 0.000000000000000000, 0.000000000000000000, -1.000000000000000000 ) ) ;
#290 = ORIENTED_EDGE ( 'NONE', *, *, #306, .F. ) ;
#291 = VECTOR ( 'NONE', #162, 1000.000000000000000 ) ;
#292 = PLANE ( 'NONE',  #244 ) ;
#293 = ORIENTED_EDGE ( 'NONE', *, *, #161, .F. ) ;
#294 = ORIENTED_EDGE ( 'NONE', *, *, #182, .T. ) ;
#295 = PRODUCT_RELATED_PRODUCT_CATEGORY ( 'part', '', ( #184 ) ) ;
#296 = ORIENTED_EDGE ( 'NONE', *, *, #210, .F. ) ;
#297 = CARTESIAN_POINT ( 'NONE',  ( -10.00000000000000000, -20.00000000000000000, 1000.000000000000000 ) ) ;
#298 = ORIENTED_EDGE ( 'NONE', *, *, #161, .T. ) ;
#299 = EDGE_CURVE ( 'NONE', #27, #145, #36, .T. ) ;
#300 = DIRECTION ( 'NONE',  ( 1.000000000000000000, 0.000000000000000000, 0.000000000000000000 ) ) ;
#301 = DIRECTION ( 'NONE',  ( 0.000000000000000000, 0.000000000000000000, 1.000000000000000000 ) ) ;
#302 = LINE ( 'NONE', #202, #77 ) ;
#303 = PRODUCT_DEFINITION_FORMATION_WITH_SPECIFIED_SOURCE ( 'ANY', '', #184, .NOT_KNOWN. ) ;
#304 = AXIS2_PLACEMENT_3D ( 'NONE', #174, #249, #156 ) ;
#305 = CARTESIAN_POINT ( 'NONE',  ( -10.00000000000000000, -20.00000000000000000, 1000.000000000000000 ) ) ;
#306 = EDGE_CURVE ( 'NONE', #43, #116, #10, .T. ) ;
#307 = CARTESIAN_POINT ( 'NONE',  ( 10.00000000000000000, 20.00000000000000000, 1000.000000000000000 ) ) ;
#308 = DIRECTION ( 'NONE',  ( 0.000000000000000000, -0.000000000000000000, -1.000000000000000000 ) ) ;
#309 = CARTESIAN_POINT ( 'NONE',  ( -10.00000000000000000, -20.00000000000000000, 1000.000000000000000 ) ) ;
#310 = EDGE_CURVE ( 'NONE', #288, #14, #177, .T. ) ;
#311 = SHAPE_DEFINITION_REPRESENTATION ( #266, #42 ) ;
#312 = DIRECTION ( 'NONE',  ( 0.000000000000000000, 0.000000000000000000, 1.000000000000000000 ) ) ;
#313 = ORIENTED_EDGE ( 'NONE', *, *, #286, .T. ) ;
#314 = DIRECTION ( 'NONE',  ( 0.000000000000000000, -0.000000000000000000, -1.000000000000000000 ) ) ;
#315 = ORIENTED_EDGE ( 'NONE', *, *, #11, .T. ) ;
#316 = MECHANICAL_DESIGN_GEOMETRIC_PRESENTATION_REPRESENTATION (  '', ( #8 ), #31 ) ;
#317 = LINE ( 'NONE', #234, #91 ) ;
#318 = LINE ( 'NONE', #183, #291 ) ;
#319 = ORIENTED_EDGE ( 'NONE', *, *, #157, .T. ) ;
#320 = EDGE_CURVE ( 'NONE', #116, #39, #139, .T. ) ;
#321 = PLANE ( 'NONE',  #263 ) ;
#322 = CARTESIAN_POINT ( 'NONE',  ( 0.000000000000000000, 0.000000000000000000, 0.000000000000000000 ) ) ;
#323 = VERTEX_POINT ( 'NONE', #307 ) ;
ENDSEC;
END-ISO-10303-21;
