ISO-10303-21;
HEADER;
FILE_DESCRIPTION (( 'STEP AP214' ),
    '1' );
FILE_NAME ('SNSD.30.51.31. Ñóõàðü ïàçîâûé ñ ïðóæèííîé ïëàñòèíîé M8, ïàç 10(B78).STEP',
    '2017-12-18T11:01:38',
    ( '' ),
    ( '' ),
    'SwSTEP 2.0',
    'SolidWorks 2017',
    '' );
FILE_SCHEMA (( 'AUTOMOTIVE_DESIGN' ));
ENDSEC;

DATA;
#1 = EDGE_CURVE ( 'NONE', #93, #212, #201, .T. ) ;
#2 = CARTESIAN_POINT ( 'NONE',  ( 0.0000000000000000000, -2.000000000000000000, 0.0000000000000000000 ) ) ;
#3 = ADVANCED_FACE ( 'NONE', ( #65 ), #104, .F. ) ;
#4 =( GEOMETRIC_REPRESENTATION_CONTEXT ( 3 ) GLOBAL_UNCERTAINTY_ASSIGNED_CONTEXT ( ( #294 ) ) GLOBAL_UNIT_ASSIGNED_CONTEXT ( ( #194, #140, #134 ) ) REPRESENTATION_CONTEXT ( 'NONE', 'WORKASPACE' ) );
#5 = ORIENTED_EDGE ( 'NONE', *, *, #181, .T. ) ;
#6 = DIRECTION ( 'NONE',  ( 0.0000000000000000000, 0.0000000000000000000, 1.000000000000000000 ) ) ;
#7 = FILL_AREA_STYLE ('',( #114 ) ) ;
#8 = ADVANCED_FACE ( 'NONE', ( #293, #20 ), #50, .T. ) ;
#9 = CARTESIAN_POINT ( 'NONE',  ( 9.000000000000005300, 2.000000000000000000, 9.000000000000000000 ) ) ;
#10 =( LENGTH_UNIT ( ) NAMED_UNIT ( * ) SI_UNIT ( .MILLI., .METRE. ) );
#11 = FILL_AREA_STYLE ('',( #312 ) ) ;
#12 =( NAMED_UNIT ( * ) PLANE_ANGLE_UNIT ( ) SI_UNIT ( $, .RADIAN. ) );
#13 = ORIENTED_EDGE ( 'NONE', *, *, #281, .T. ) ;
#14 = ORIENTED_EDGE ( 'NONE', *, *, #159, .T. ) ;
#15 = DIRECTION ( 'NONE',  ( -3.854941057726239100E-016, -0.0000000000000000000, -1.000000000000000000 ) ) ;
#16 = VECTOR ( 'NONE', #72, 1000.000000000000000 ) ;
#17 = CARTESIAN_POINT ( 'NONE',  ( -9.000000000000000000, 2.000000000000000000, -9.000000000000000000 ) ) ;
#18 = UNCERTAINTY_MEASURE_WITH_UNIT (LENGTH_MEASURE( 1.000000000000000100E-005 ), #190, 'distance_accuracy_value', 'NONE');
#19 = SURFACE_STYLE_FILL_AREA ( #208 ) ;
#20 = FACE_OUTER_BOUND ( 'NONE', #310, .T. ) ;
#21 = AXIS2_PLACEMENT_3D ( 'NONE', #135, #313, #330 ) ;
#22 = AXIS2_PLACEMENT_3D ( 'NONE', #174, #52, #37 ) ;
#23 = ORIENTED_EDGE ( 'NONE', *, *, #300, .T. ) ;
#24 = CARTESIAN_POINT ( 'NONE',  ( 4.286263797015736600E-016, -2.000000000000000000, -3.500000000000000000 ) ) ;
#25 = CIRCLE ( 'NONE', #238, 3.500000000000000000 ) ;
#26 = ITEM_DEFINED_TRANSFORMATION ( 'NONE', 'NONE', #326,  #62 ) ;
#27 = VECTOR ( 'NONE', #248, 1000.000000000000000 ) ;
#28 = CARTESIAN_POINT ( 'NONE',  ( 0.0000000000000000000, 0.0000000000000000000, 0.0000000000000000000 ) ) ;
#29 = DIRECTION ( 'NONE',  ( 0.0000000000000000000, 0.0000000000000000000, 1.000000000000000000 ) ) ;
#30 = SURFACE_SIDE_STYLE ('',( #19 ) ) ;
#31 =( NAMED_UNIT ( * ) SI_UNIT ( $, .STERADIAN. ) SOLID_ANGLE_UNIT ( ) );
#32 = DIRECTION ( 'NONE',  ( 0.0000000000000000000, 1.000000000000000000, 0.0000000000000000000 ) ) ;
#33 = EDGE_LOOP ( 'NONE', ( #206, #82, #244, #202 ) ) ;
#34 = ORIENTED_EDGE ( 'NONE', *, *, #87, .T. ) ;
#35 = DIRECTION ( 'NONE',  ( 1.000000000000000000, 0.0000000000000000000, 0.0000000000000000000 ) ) ;
#36 = DIRECTION ( 'NONE',  ( 0.0000000000000000000, 0.0000000000000000000, 1.000000000000000000 ) ) ;
#37 = DIRECTION ( 'NONE',  ( 0.0000000000000000000, 0.0000000000000000000, 1.000000000000000000 ) ) ;
#38 = SURFACE_STYLE_USAGE ( .BOTH. , #53 ) ;
#39 = DIRECTION ( 'NONE',  ( 3.854941057726239100E-016, 0.0000000000000000000, 1.000000000000000000 ) ) ;
#40 = FACE_OUTER_BOUND ( 'NONE', #229, .T. ) ;
#41 = VECTOR ( 'NONE', #215, 1000.000000000000000 ) ;
#42 = DIRECTION ( 'NONE',  ( -0.0000000000000000000, 1.000000000000000000, -0.0000000000000000000 ) ) ;
#43 = PRODUCT_RELATED_PRODUCT_CATEGORY ( 'part', '', ( #56 ) ) ;
#44 = CARTESIAN_POINT ( 'NONE',  ( 8.999999999999998200, 2.000000000000000000, -8.999999999999998200 ) ) ;
#45 = LINE ( 'NONE', #111, #331 ) ;
#46 = EDGE_CURVE ( 'NONE', #93, #154, #285, .T. ) ;
#47 = PRESENTATION_STYLE_ASSIGNMENT (( #169 ) ) ;
#48 = SURFACE_STYLE_FILL_AREA ( #7 ) ;
#49 = FACE_OUTER_BOUND ( 'NONE', #301, .T. ) ;
#50 = PLANE ( 'NONE',  #165 ) ;
#51 = PRODUCT_CONTEXT ( 'NONE', #274, 'mechanical' ) ;
#52 = DIRECTION ( 'NONE',  ( -0.0000000000000000000, 1.000000000000000000, -0.0000000000000000000 ) ) ;
#53 = SURFACE_SIDE_STYLE ('',( #178 ) ) ;
#54 = DIRECTION ( 'NONE',  ( 0.0000000000000000000, 0.0000000000000000000, 1.000000000000000000 ) ) ;
#55 = EDGE_CURVE ( 'NONE', #320, #262, #296, .T. ) ;
#56 = PRODUCT ( 'SNSD.30.51.19. Ñóõàðü ïàçîâûé ñ ïðóæèííîé ïëàñòèíîé M6, ïàç 8(B79)B80B78_á à¥§ì¡®©', 'SNSD.30.51.19. Ñóõàðü ïàçîâûé ñ ïðóæèííîé ïëàñòèíîé M6, ïàç 8(B79)B80B78_á à¥§ì¡®©', '', ( #272 ) ) ;
#57 =( NAMED_UNIT ( * ) SI_UNIT ( $, .STERADIAN. ) SOLID_ANGLE_UNIT ( ) );
#58 = CARTESIAN_POINT ( 'NONE',  ( 9.000000000000005300, -2.000000000000000000, 9.000000000000000000 ) ) ;
#59 = FACE_OUTER_BOUND ( 'NONE', #76, .T. ) ;
#60 = ORIENTED_EDGE ( 'NONE', *, *, #209, .T. ) ;
#61 = CARTESIAN_POINT ( 'NONE',  ( 8.999999999999998200, 2.000000000000000000, -8.999999999999998200 ) ) ;
#62 = AXIS2_PLACEMENT_3D ( 'NONE', #170, #276, #277 ) ;
#63 = EDGE_CURVE ( 'NONE', #69, #127, #211, .T. ) ;
#64 = VERTEX_POINT ( 'NONE', #58 ) ;
#65 = FACE_OUTER_BOUND ( 'NONE', #260, .T. ) ;
#66 = DIRECTION ( 'NONE',  ( -1.000000000000000000, 0.0000000000000000000, 3.854941057726239100E-016 ) ) ;
#67 = ORIENTED_EDGE ( 'NONE', *, *, #87, .F. ) ;
#68 = MECHANICAL_DESIGN_GEOMETRIC_PRESENTATION_REPRESENTATION (  '', ( #152 ), #254 ) ;
#69 = VERTEX_POINT ( 'NONE', #265 ) ;
#70 = AXIS2_PLACEMENT_3D ( 'NONE', #28, #189, #195 ) ;
#71 = ORIENTED_EDGE ( 'NONE', *, *, #103, .T. ) ;
#72 = DIRECTION ( 'NONE',  ( -0.0000000000000000000, -1.000000000000000000, -0.0000000000000000000 ) ) ;
#73 = DIRECTION ( 'NONE',  ( 1.000000000000000000, 0.0000000000000000000, 0.0000000000000000000 ) ) ;
#74 = MECHANICAL_DESIGN_GEOMETRIC_PRESENTATION_REPRESENTATION (  '', ( #338 ), #226 ) ;
#75 = SHAPE_DEFINITION_REPRESENTATION ( #291, #298 ) ;
#76 = EDGE_LOOP ( 'NONE', ( #112, #158, #264, #34 ) ) ;
#77 = CARTESIAN_POINT ( 'NONE',  ( -9.000000000000000000, 2.000000000000000000, 9.000000000000000000 ) ) ;
#78 =( NAMED_UNIT ( * ) PLANE_ANGLE_UNIT ( ) SI_UNIT ( $, .RADIAN. ) );
#79 = CARTESIAN_POINT ( 'NONE',  ( 0.0000000000000000000, -2.000000000000000000, 0.0000000000000000000 ) ) ;
#80 = LINE ( 'NONE', #282, #336 ) ;
#81 =( NAMED_UNIT ( * ) PLANE_ANGLE_UNIT ( ) SI_UNIT ( $, .RADIAN. ) );
#82 = ORIENTED_EDGE ( 'NONE', *, *, #103, .F. ) ;
#83 = ORIENTED_EDGE ( 'NONE', *, *, #266, .F. ) ;
#84 = DIRECTION ( 'NONE',  ( 0.0000000000000000000, -0.0000000000000000000, 1.000000000000000000 ) ) ;
#85 = CARTESIAN_POINT ( 'NONE',  ( 8.999999999999998200, 2.000000000000000000, -8.999999999999998200 ) ) ;
#86 = DIRECTION ( 'NONE',  ( 1.000000000000000000, 0.0000000000000000000, 9.637352644315597700E-017 ) ) ;
#87 = EDGE_CURVE ( 'NONE', #154, #64, #45, .T. ) ;
#88 = ORIENTED_EDGE ( 'NONE', *, *, #177, .F. ) ;
#89 = CARTESIAN_POINT ( 'NONE',  ( 0.0000000000000000000, -2.000000000000000000, 3.500000000000000000 ) ) ;
#90 =( GEOMETRIC_REPRESENTATION_CONTEXT ( 3 ) GLOBAL_UNCERTAINTY_ASSIGNED_CONTEXT ( ( #306 ) ) GLOBAL_UNIT_ASSIGNED_CONTEXT ( ( #10, #328, #57 ) ) REPRESENTATION_CONTEXT ( 'NONE', 'WORKASPACE' ) );
#91 = LINE ( 'NONE', #287, #121 ) ;
#92 = ORIENTED_EDGE ( 'NONE', *, *, #242, .F. ) ;
#93 = VERTEX_POINT ( 'NONE', #77 ) ;
#94 = VECTOR ( 'NONE', #295, 1000.000000000000000 ) ;
#95 = PRODUCT_DEFINITION_SHAPE ( 'NONE', 'NONE',  #337 ) ;
#96 = MECHANICAL_DESIGN_GEOMETRIC_PRESENTATION_REPRESENTATION (  '', ( #122 ), #4 ) ;
#97 =( GEOMETRIC_REPRESENTATION_CONTEXT ( 3 ) GLOBAL_UNCERTAINTY_ASSIGNED_CONTEXT ( ( #207 ) ) GLOBAL_UNIT_ASSIGNED_CONTEXT ( ( #137, #12, #241 ) ) REPRESENTATION_CONTEXT ( 'NONE', 'WORKASPACE' ) );
#98 = COLOUR_RGB ( '',0.7803921568627451000, 0.7607843137254901600, 0.7411764705882353300 ) ;
#99 = ORIENTED_EDGE ( 'NONE', *, *, #253, .F. ) ;
#100 = AXIS2_PLACEMENT_3D ( 'NONE', #179, #120, #86 ) ;
#101 = DIRECTION ( 'NONE',  ( 0.0000000000000000000, 0.0000000000000000000, -1.000000000000000000 ) ) ;
#102 = FACE_OUTER_BOUND ( 'NONE', #309, .T. ) ;
#103 = EDGE_CURVE ( 'NONE', #321, #171, #142, .T. ) ;
#104 = PLANE ( 'NONE',  #257 ) ;
#105 = ADVANCED_FACE ( 'NONE', ( #131 ), #198, .F. ) ;
#106 =( NAMED_UNIT ( * ) PLANE_ANGLE_UNIT ( ) SI_UNIT ( $, .RADIAN. ) );
#107 = DIRECTION ( 'NONE',  ( -0.0000000000000000000, -1.000000000000000000, -0.0000000000000000000 ) ) ;
#108 = PRODUCT_DEFINITION_CONTEXT ( 'detailed design', #333, 'design' ) ;
#109 = PRODUCT_DEFINITION_FORMATION_WITH_SPECIFIED_SOURCE ( 'ANY', '', #249, .NOT_KNOWN. ) ;
#110 = APPLICATION_PROTOCOL_DEFINITION ( 'draft international standard', 'automotive_design', 1998, #333 ) ;
#111 = CARTESIAN_POINT ( 'NONE',  ( 9.000000000000005300, 2.000000000000000000, 9.000000000000000000 ) ) ;
#112 = ORIENTED_EDGE ( 'NONE', *, *, #242, .T. ) ;
#113 = APPLICATION_PROTOCOL_DEFINITION ( 'draft international standard', 'automotive_design', 1998, #274 ) ;
#114 = FILL_AREA_STYLE_COLOUR ( '', #116 ) ;
#115 = ADVANCED_FACE ( 'NONE', ( #102 ), #222, .F. ) ;
#116 = COLOUR_RGB ( '',0.7803921568627451000, 0.7607843137254901600, 0.7411764705882353300 ) ;
#117 = PRESENTATION_LAYER_ASSIGNMENT (  '', '', ( #122 ) ) ;
#118 = CARTESIAN_POINT ( 'NONE',  ( 0.0000000000000000000, -2.000000000000000000, 3.500000000000000000 ) ) ;
#119 = DIRECTION ( 'NONE',  ( 0.0000000000000000000, 0.0000000000000000000, 1.000000000000000000 ) ) ;
#120 = DIRECTION ( 'NONE',  ( -9.637352644315597700E-017, 0.0000000000000000000, 1.000000000000000000 ) ) ;
#121 = VECTOR ( 'NONE', #15, 1000.000000000000000 ) ;
#122 = STYLED_ITEM ( 'NONE', ( #149 ), #157 ) ;
#123 = LINE ( 'NONE', #167, #41 ) ;
#124 = ORIENTED_EDGE ( 'NONE', *, *, #1, .F. ) ;
#125 = EDGE_CURVE ( 'NONE', #132, #280, #123, .T. ) ;
#126 = PLANE ( 'NONE',  #168 ) ;
#127 = VERTEX_POINT ( 'NONE', #329 ) ;
#128 = CARTESIAN_POINT ( 'NONE',  ( -9.000000000000000000, 2.000000000000000000, -9.000000000000000000 ) ) ;
#129 = VECTOR ( 'NONE', #233, 1000.000000000000000 ) ;
#130 = LINE ( 'NONE', #315, #230 ) ;
#131 = FACE_OUTER_BOUND ( 'NONE', #234, .T. ) ;
#132 = VERTEX_POINT ( 'NONE', #85 ) ;
#133 = CARTESIAN_POINT ( 'NONE',  ( 0.0000000000000000000, 2.000000000000000000, 0.0000000000000000000 ) ) ;
#134 =( NAMED_UNIT ( * ) SI_UNIT ( $, .STERADIAN. ) SOLID_ANGLE_UNIT ( ) );
#135 = CARTESIAN_POINT ( 'NONE',  ( -9.000000000000000000, 2.000000000000000000, -9.000000000000000000 ) ) ;
#136 = ORIENTED_EDGE ( 'NONE', *, *, #1, .T. ) ;
#137 =( LENGTH_UNIT ( ) NAMED_UNIT ( * ) SI_UNIT ( .MILLI., .METRE. ) );
#138 = ADVANCED_FACE ( 'NONE', ( #49 ), #153, .F. ) ;
#139 = DIRECTION ( 'NONE',  ( 0.0000000000000000000, 1.000000000000000000, 0.0000000000000000000 ) ) ;
#140 =( NAMED_UNIT ( * ) PLANE_ANGLE_UNIT ( ) SI_UNIT ( $, .RADIAN. ) );
#141 = CARTESIAN_POINT ( 'NONE',  ( 0.0000000000000000000, 2.000000000000000000, 0.0000000000000000000 ) ) ;
#142 = LINE ( 'NONE', #303, #27 ) ;
#143 = CLOSED_SHELL ( 'NONE', ( #105, #115, #3, #218, #223, #8, #327, #138 ) ) ;
#144 = CARTESIAN_POINT ( 'NONE',  ( 0.0000000000000000000, 0.0000000000000000000, 0.0000000000000000000 ) ) ;
#145 = PRODUCT_RELATED_PRODUCT_CATEGORY ( 'part', '', ( #249 ) ) ;
#146 = DIRECTION ( 'NONE',  ( 0.0000000000000000000, 0.0000000000000000000, 1.000000000000000000 ) ) ;
#147 = DIRECTION ( 'NONE',  ( 0.0000000000000000000, 0.0000000000000000000, 1.000000000000000000 ) ) ;
#148 = EDGE_CURVE ( 'NONE', #127, #69, #256, .T. ) ;
#149 = PRESENTATION_STYLE_ASSIGNMENT (( #38 ) ) ;
#150 = CARTESIAN_POINT ( 'NONE',  ( -9.000000000000000000, -2.000000000000000000, 9.000000000000000000 ) ) ;
#151 = ORIENTED_EDGE ( 'NONE', *, *, #281, .F. ) ;
#152 = STYLED_ITEM ( 'NONE', ( #47 ), #323 ) ;
#153 = CYLINDRICAL_SURFACE ( 'NONE', #203, 3.500000000000000000 ) ;
#154 = VERTEX_POINT ( 'NONE', #9 ) ;
#155 = PRODUCT_DEFINITION_CONTEXT ( 'detailed design', #243, 'design' ) ;
#156 = ORIENTED_EDGE ( 'NONE', *, *, #63, .F. ) ;
#157 = ADVANCED_BREP_SHAPE_REPRESENTATION ( '', ( #323, #62 ), #90 ) ;
#158 = ORIENTED_EDGE ( 'NONE', *, *, #125, .F. ) ;
#159 = EDGE_CURVE ( 'NONE', #262, #320, #25, .T. ) ;
#160 = VECTOR ( 'NONE', #42, 1000.000000000000000 ) ;
#161 = ORIENTED_EDGE ( 'NONE', *, *, #46, .T. ) ;
#162 = FILL_AREA_STYLE_COLOUR ( '', #334 ) ;
#163 = DIRECTION ( 'NONE',  ( 0.0000000000000000000, -0.0000000000000000000, 1.000000000000000000 ) ) ;
#164 = VECTOR ( 'NONE', #252, 1000.000000000000000 ) ;
#165 = AXIS2_PLACEMENT_3D ( 'NONE', #133, #324, #163 ) ;
#166 = UNCERTAINTY_MEASURE_WITH_UNIT (LENGTH_MEASURE( 1.000000000000000100E-005 ), #217, 'distance_accuracy_value', 'NONE');
#167 = CARTESIAN_POINT ( 'NONE',  ( 8.999999999999998200, 2.000000000000000000, -8.999999999999998200 ) ) ;
#168 = AXIS2_PLACEMENT_3D ( 'NONE', #2, #267, #84 ) ;
#169 = SURFACE_STYLE_USAGE ( .BOTH. , #30 ) ;
#170 = CARTESIAN_POINT ( 'NONE',  ( 0.0000000000000000000, 0.0000000000000000000, 0.0000000000000000000 ) ) ;
#171 = VERTEX_POINT ( 'NONE', #247 ) ;
#172 = EDGE_CURVE ( 'NONE', #321, #93, #183, .T. ) ;
#173 = ORIENTED_EDGE ( 'NONE', *, *, #46, .F. ) ;
#174 = CARTESIAN_POINT ( 'NONE',  ( 0.0000000000000000000, -2.000000000000000000, 0.0000000000000000000 ) ) ;
#175 =( REPRESENTATION_RELATIONSHIP ('NONE','NONE', #292, #298 ) REPRESENTATION_RELATIONSHIP_WITH_TRANSFORMATION ( #26 )SHAPE_REPRESENTATION_RELATIONSHIP( ) );
#176 = SURFACE_STYLE_USAGE ( .BOTH. , #273 ) ;
#177 = EDGE_CURVE ( 'NONE', #171, #212, #130, .T. ) ;
#178 = SURFACE_STYLE_FILL_AREA ( #11 ) ;
#179 = CARTESIAN_POINT ( 'NONE',  ( -9.000000000000000000, 2.000000000000000000, -9.000000000000000000 ) ) ;
#180 = AXIS2_PLACEMENT_3D ( 'NONE', #44, #66, #39 ) ;
#181 = EDGE_CURVE ( 'NONE', #154, #132, #250, .T. ) ;
#182 = ORIENTED_EDGE ( 'NONE', *, *, #253, .T. ) ;
#183 = LINE ( 'NONE', #17, #308 ) ;
#184 = AXIS2_PLACEMENT_3D ( 'NONE', #79, #32, #29 ) ;
#185 = ORIENTED_EDGE ( 'NONE', *, *, #63, .T. ) ;
#186 = CARTESIAN_POINT ( 'NONE',  ( -9.000000000000000000, 2.000000000000000000, 9.000000000000000000 ) ) ;
#187 = LINE ( 'NONE', #251, #160 ) ;
#188 = LINE ( 'NONE', #89, #129 ) ;
#189 = DIRECTION ( 'NONE',  ( 0.0000000000000000000, 0.0000000000000000000, 1.000000000000000000 ) ) ;
#190 =( LENGTH_UNIT ( ) NAMED_UNIT ( * ) SI_UNIT ( .MILLI., .METRE. ) );
#191 = ORIENTED_EDGE ( 'NONE', *, *, #159, .F. ) ;
#192 = ORIENTED_EDGE ( 'NONE', *, *, #55, .T. ) ;
#193 = CARTESIAN_POINT ( 'NONE',  ( 0.0000000000000000000, 2.000000000000000000, 0.0000000000000000000 ) ) ;
#194 =( LENGTH_UNIT ( ) NAMED_UNIT ( * ) SI_UNIT ( .MILLI., .METRE. ) );
#195 = DIRECTION ( 'NONE',  ( 1.000000000000000000, 0.0000000000000000000, 0.0000000000000000000 ) ) ;
#196 = SURFACE_STYLE_USAGE ( .BOTH. , #278 ) ;
#197 = CARTESIAN_POINT ( 'NONE',  ( 0.0000000000000000000, -2.000000000000000000, 0.0000000000000000000 ) ) ;
#198 = CYLINDRICAL_SURFACE ( 'NONE', #22, 3.500000000000000000 ) ;
#199 = PLANE ( 'NONE',  #180 ) ;
#200 = PRESENTATION_LAYER_ASSIGNMENT (  '', '', ( #288 ) ) ;
#201 = LINE ( 'NONE', #297, #16 ) ;
#202 = ORIENTED_EDGE ( 'NONE', *, *, #125, .T. ) ;
#203 = AXIS2_PLACEMENT_3D ( 'NONE', #311, #305, #269 ) ;
#204 = SHAPE_REPRESENTATION_RELATIONSHIP ( 'NONE' , 'NONE' ,  #298, #157 ) ;
#205 = FACE_BOUND ( 'NONE', #317, .T. ) ;
#206 = ORIENTED_EDGE ( 'NONE', *, *, #266, .T. ) ;
#207 = UNCERTAINTY_MEASURE_WITH_UNIT (LENGTH_MEASURE( 1.000000000000000100E-005 ), #137, 'distance_accuracy_value', 'NONE');
#208 = FILL_AREA_STYLE ('',( #162 ) ) ;
#209 = EDGE_CURVE ( 'NONE', #212, #64, #255, .T. ) ;
#210 = FACE_OUTER_BOUND ( 'NONE', #33, .T. ) ;
#211 = CIRCLE ( 'NONE', #261, 3.500000000000000000 ) ;
#212 = VERTEX_POINT ( 'NONE', #150 ) ;
#213 = AXIS2_PLACEMENT_3D ( 'NONE', #224, #246, #304 ) ;
#214 = CARTESIAN_POINT ( 'NONE',  ( -9.000000000000000000, 2.000000000000000000, 9.000000000000000000 ) ) ;
#215 = DIRECTION ( 'NONE',  ( -0.0000000000000000000, -1.000000000000000000, -0.0000000000000000000 ) ) ;
#216 = APPLICATION_PROTOCOL_DEFINITION ( 'draft international standard', 'automotive_design', 1998, #307 ) ;
#217 =( LENGTH_UNIT ( ) NAMED_UNIT ( * ) SI_UNIT ( .MILLI., .METRE. ) );
#218 = ADVANCED_FACE ( 'NONE', ( #59 ), #199, .F. ) ;
#219 =( LENGTH_UNIT ( ) NAMED_UNIT ( * ) SI_UNIT ( .MILLI., .METRE. ) );
#220 = PLANE ( 'NONE',  #100 ) ;
#221 = SURFACE_STYLE_FILL_AREA ( #332 ) ;
#222 = PLANE ( 'NONE',  #21 ) ;
#223 = ADVANCED_FACE ( 'NONE', ( #210 ), #220, .F. ) ;
#224 = CARTESIAN_POINT ( 'NONE',  ( 0.0000000000000000000, 0.0000000000000000000, 0.0000000000000000000 ) ) ;
#225 = CARTESIAN_POINT ( 'NONE',  ( -9.000000000000000000, -2.000000000000000000, 9.000000000000000000 ) ) ;
#226 =( GEOMETRIC_REPRESENTATION_CONTEXT ( 3 ) GLOBAL_UNCERTAINTY_ASSIGNED_CONTEXT ( ( #18 ) ) GLOBAL_UNIT_ASSIGNED_CONTEXT ( ( #190, #81, #335 ) ) REPRESENTATION_CONTEXT ( 'NONE', 'WORKASPACE' ) );
#227 = EDGE_LOOP ( 'NONE', ( #156, #270 ) ) ;
#228 = LINE ( 'NONE', #128, #94 ) ;
#229 = EDGE_LOOP ( 'NONE', ( #88, #83, #92, #340 ) ) ;
#230 = VECTOR ( 'NONE', #119, 1000.000000000000000 ) ;
#231 = CONTEXT_DEPENDENT_SHAPE_REPRESENTATION ( #175, #236 ) ;
#232 = MECHANICAL_DESIGN_GEOMETRIC_PRESENTATION_REPRESENTATION (  '', ( #288 ), #97 ) ;
#233 = DIRECTION ( 'NONE',  ( -0.0000000000000000000, 1.000000000000000000, -0.0000000000000000000 ) ) ;
#234 = EDGE_LOOP ( 'NONE', ( #318, #182, #290, #151 ) ) ;
#235 = PRESENTATION_LAYER_ASSIGNMENT (  '', '', ( #338 ) ) ;
#236 = PRODUCT_DEFINITION_SHAPE ( 'NONE', 'NONE',  #343 ) ;
#237 = COLOUR_RGB ( '',0.7803921568627451000, 0.7607843137254901600, 0.7411764705882353300 ) ;
#238 = AXIS2_PLACEMENT_3D ( 'NONE', #197, #316, #147 ) ;
#239 = DIRECTION ( 'NONE',  ( 0.0000000000000000000, 1.000000000000000000, 0.0000000000000000000 ) ) ;
#240 = APPLICATION_PROTOCOL_DEFINITION ( 'draft international standard', 'automotive_design', 1998, #243 ) ;
#241 =( NAMED_UNIT ( * ) SI_UNIT ( $, .STERADIAN. ) SOLID_ANGLE_UNIT ( ) );
#242 = EDGE_CURVE ( 'NONE', #64, #280, #91, .T. ) ;
#243 = APPLICATION_CONTEXT ( 'automotive_design' ) ;
#244 = ORIENTED_EDGE ( 'NONE', *, *, #300, .F. ) ;
#245 = ORIENTED_EDGE ( 'NONE', *, *, #172, .T. ) ;
#246 = DIRECTION ( 'NONE',  ( 0.0000000000000000000, 0.0000000000000000000, 1.000000000000000000 ) ) ;
#247 = CARTESIAN_POINT ( 'NONE',  ( -9.000000000000000000, -2.000000000000000000, -9.000000000000000000 ) ) ;
#248 = DIRECTION ( 'NONE',  ( -0.0000000000000000000, -1.000000000000000000, -0.0000000000000000000 ) ) ;
#249 = PRODUCT ( 'SNSD.30.51.31. Ñóõàðü ïàçîâûé ñ ïðóæèííîé ïëàñòèíîé M8, ïàç 10(B78)', 'SNSD.30.51.31. Ñóõàðü ïàçîâûé ñ ïðóæèííîé ïëàñòèíîé M8, ïàç 10(B78)', '', ( #51 ) ) ;
#250 = LINE ( 'NONE', #61, #164 ) ;
#251 = CARTESIAN_POINT ( 'NONE',  ( 4.286263797015736600E-016, -2.000000000000000000, -3.500000000000000000 ) ) ;
#252 = DIRECTION ( 'NONE',  ( -3.854941057726239100E-016, -0.0000000000000000000, -1.000000000000000000 ) ) ;
#253 = EDGE_CURVE ( 'NONE', #320, #127, #187, .T. ) ;
#254 =( GEOMETRIC_REPRESENTATION_CONTEXT ( 3 ) GLOBAL_UNCERTAINTY_ASSIGNED_CONTEXT ( ( #166 ) ) GLOBAL_UNIT_ASSIGNED_CONTEXT ( ( #217, #78, #271 ) ) REPRESENTATION_CONTEXT ( 'NONE', 'WORKASPACE' ) );
#255 = LINE ( 'NONE', #225, #339 ) ;
#256 = CIRCLE ( 'NONE', #341, 3.500000000000000000 ) ;
#257 = AXIS2_PLACEMENT_3D ( 'NONE', #186, #101, #299 ) ;
#258 = DIRECTION ( 'NONE',  ( -1.000000000000000000, -0.0000000000000000000, -9.637352644315597700E-017 ) ) ;
#259 = PRESENTATION_LAYER_ASSIGNMENT (  '', '', ( #152 ) ) ;
#260 = EDGE_LOOP ( 'NONE', ( #60, #67, #173, #136 ) ) ;
#261 = AXIS2_PLACEMENT_3D ( 'NONE', #141, #239, #54 ) ;
#262 = VERTEX_POINT ( 'NONE', #118 ) ;
#263 = CARTESIAN_POINT ( 'NONE',  ( 8.999999999999998200, -2.000000000000000000, -8.999999999999998200 ) ) ;
#264 = ORIENTED_EDGE ( 'NONE', *, *, #181, .F. ) ;
#265 = CARTESIAN_POINT ( 'NONE',  ( 0.0000000000000000000, 2.000000000000000000, 3.500000000000000000 ) ) ;
#266 = EDGE_CURVE ( 'NONE', #280, #171, #80, .T. ) ;
#267 = DIRECTION ( 'NONE',  ( 0.0000000000000000000, 1.000000000000000000, 0.0000000000000000000 ) ) ;
#268 = SHAPE_DEFINITION_REPRESENTATION ( #95, #292 ) ;
#269 = DIRECTION ( 'NONE',  ( 0.0000000000000000000, 0.0000000000000000000, 1.000000000000000000 ) ) ;
#270 = ORIENTED_EDGE ( 'NONE', *, *, #148, .F. ) ;
#271 =( NAMED_UNIT ( * ) SI_UNIT ( $, .STERADIAN. ) SOLID_ANGLE_UNIT ( ) );
#272 = PRODUCT_CONTEXT ( 'NONE', #307, 'mechanical' ) ;
#273 = SURFACE_SIDE_STYLE ('',( #48 ) ) ;
#274 = APPLICATION_CONTEXT ( 'automotive_design' ) ;
#275 = FILL_AREA_STYLE_COLOUR ( '', #98 ) ;
#276 = DIRECTION ( 'NONE',  ( 0.0000000000000000000, 0.0000000000000000000, 1.000000000000000000 ) ) ;
#277 = DIRECTION ( 'NONE',  ( 1.000000000000000000, 0.0000000000000000000, 0.0000000000000000000 ) ) ;
#278 = SURFACE_SIDE_STYLE ('',( #221 ) ) ;
#279 = ORIENTED_EDGE ( 'NONE', *, *, #177, .T. ) ;
#280 = VERTEX_POINT ( 'NONE', #263 ) ;
#281 = EDGE_CURVE ( 'NONE', #262, #69, #188, .T. ) ;
#282 = CARTESIAN_POINT ( 'NONE',  ( -9.000000000000000000, -2.000000000000000000, -9.000000000000000000 ) ) ;
#283 = UNCERTAINTY_MEASURE_WITH_UNIT (LENGTH_MEASURE( 1.000000000000000100E-005 ), #219, 'distance_accuracy_value', 'NONE');
#284 =( GEOMETRIC_REPRESENTATION_CONTEXT ( 3 ) GLOBAL_UNCERTAINTY_ASSIGNED_CONTEXT ( ( #283 ) ) GLOBAL_UNIT_ASSIGNED_CONTEXT ( ( #219, #106, #31 ) ) REPRESENTATION_CONTEXT ( 'NONE', 'WORKASPACE' ) );
#285 = LINE ( 'NONE', #214, #289 ) ;
#286 = DIRECTION ( 'NONE',  ( 1.000000000000000000, 0.0000000000000000000, 0.0000000000000000000 ) ) ;
#287 = CARTESIAN_POINT ( 'NONE',  ( 8.999999999999998200, -2.000000000000000000, -8.999999999999998200 ) ) ;
#288 = STYLED_ITEM ( 'NONE', ( #314 ), #105 ) ;
#289 = VECTOR ( 'NONE', #73, 1000.000000000000000 ) ;
#290 = ORIENTED_EDGE ( 'NONE', *, *, #148, .T. ) ;
#291 = PRODUCT_DEFINITION_SHAPE ( 'NONE', 'NONE',  #319 ) ;
#292 = SHAPE_REPRESENTATION ( 'SNSD.30.51.31. Ñóõàðü ïàçîâûé ñ ïðóæèííîé ïëàñòèíîé M8, ïàç 10(B78)', ( #70, #326 ), #284 ) ;
#293 = FACE_BOUND ( 'NONE', #227, .T. ) ;
#294 = UNCERTAINTY_MEASURE_WITH_UNIT (LENGTH_MEASURE( 1.000000000000000100E-005 ), #194, 'distance_accuracy_value', 'NONE');
#295 = DIRECTION ( 'NONE',  ( -1.000000000000000000, -0.0000000000000000000, -9.637352644315597700E-017 ) ) ;
#296 = CIRCLE ( 'NONE', #184, 3.500000000000000000 ) ;
#297 = CARTESIAN_POINT ( 'NONE',  ( -9.000000000000000000, 2.000000000000000000, 9.000000000000000000 ) ) ;
#298 = SHAPE_REPRESENTATION ( 'SNSD.30.51.19. Ñóõàðü ïàçîâûé ñ ïðóæèííîé ïëàñòèíîé M6, ïàç 8(B79)B80B78_á à¥§ì¡®©', ( #62 ), #90 ) ;
#299 = DIRECTION ( 'NONE',  ( -1.000000000000000000, 0.0000000000000000000, -0.0000000000000000000 ) ) ;
#300 = EDGE_CURVE ( 'NONE', #132, #321, #228, .T. ) ;
#301 = EDGE_LOOP ( 'NONE', ( #99, #191, #13, #185 ) ) ;
#302 = PRODUCT_DEFINITION_FORMATION_WITH_SPECIFIED_SOURCE ( 'ANY', '', #56, .NOT_KNOWN. ) ;
#303 = CARTESIAN_POINT ( 'NONE',  ( -9.000000000000000000, 2.000000000000000000, -9.000000000000000000 ) ) ;
#304 = DIRECTION ( 'NONE',  ( 1.000000000000000000, 0.0000000000000000000, 0.0000000000000000000 ) ) ;
#305 = DIRECTION ( 'NONE',  ( -0.0000000000000000000, 1.000000000000000000, -0.0000000000000000000 ) ) ;
#306 = UNCERTAINTY_MEASURE_WITH_UNIT (LENGTH_MEASURE( 1.000000000000000100E-005 ), #10, 'distance_accuracy_value', 'NONE');
#307 = APPLICATION_CONTEXT ( 'automotive_design' ) ;
#308 = VECTOR ( 'NONE', #146, 1000.000000000000000 ) ;
#309 = EDGE_LOOP ( 'NONE', ( #279, #124, #342, #71 ) ) ;
#310 = EDGE_LOOP ( 'NONE', ( #245, #161, #5, #23 ) ) ;
#311 = CARTESIAN_POINT ( 'NONE',  ( 0.0000000000000000000, -2.000000000000000000, 0.0000000000000000000 ) ) ;
#312 = FILL_AREA_STYLE_COLOUR ( '', #237 ) ;
#313 = DIRECTION ( 'NONE',  ( 1.000000000000000000, 0.0000000000000000000, 0.0000000000000000000 ) ) ;
#314 = PRESENTATION_STYLE_ASSIGNMENT (( #196 ) ) ;
#315 = CARTESIAN_POINT ( 'NONE',  ( -9.000000000000000000, -2.000000000000000000, -9.000000000000000000 ) ) ;
#316 = DIRECTION ( 'NONE',  ( 0.0000000000000000000, 1.000000000000000000, 0.0000000000000000000 ) ) ;
#317 = EDGE_LOOP ( 'NONE', ( #14, #192 ) ) ;
#318 = ORIENTED_EDGE ( 'NONE', *, *, #55, .F. ) ;
#319 = PRODUCT_DEFINITION ( 'UNKNOWN', '', #302, #108 ) ;
#320 = VERTEX_POINT ( 'NONE', #24 ) ;
#321 = VERTEX_POINT ( 'NONE', #322 ) ;
#322 = CARTESIAN_POINT ( 'NONE',  ( -9.000000000000000000, 2.000000000000000000, -9.000000000000000000 ) ) ;
#323 = MANIFOLD_SOLID_BREP ( 'Âûðåç-Âûòÿíóòü1', #143 ) ;
#324 = DIRECTION ( 'NONE',  ( 0.0000000000000000000, 1.000000000000000000, 0.0000000000000000000 ) ) ;
#325 = PRESENTATION_STYLE_ASSIGNMENT (( #176 ) ) ;
#326 = AXIS2_PLACEMENT_3D ( 'NONE', #144, #6, #35 ) ;
#327 = ADVANCED_FACE ( 'NONE', ( #205, #40 ), #126, .F. ) ;
#328 =( NAMED_UNIT ( * ) PLANE_ANGLE_UNIT ( ) SI_UNIT ( $, .RADIAN. ) );
#329 = CARTESIAN_POINT ( 'NONE',  ( 4.286263797015736600E-016, 2.000000000000000000, -3.500000000000000000 ) ) ;
#330 = DIRECTION ( 'NONE',  ( 0.0000000000000000000, 0.0000000000000000000, -1.000000000000000000 ) ) ;
#331 = VECTOR ( 'NONE', #107, 1000.000000000000000 ) ;
#332 = FILL_AREA_STYLE ('',( #275 ) ) ;
#333 = APPLICATION_CONTEXT ( 'automotive_design' ) ;
#334 = COLOUR_RGB ( '',0.7803921568627451000, 0.7607843137254901600, 0.7411764705882353300 ) ;
#335 =( NAMED_UNIT ( * ) SI_UNIT ( $, .STERADIAN. ) SOLID_ANGLE_UNIT ( ) );
#336 = VECTOR ( 'NONE', #258, 1000.000000000000000 ) ;
#337 = PRODUCT_DEFINITION ( 'UNKNOWN', '', #109, #155 ) ;
#338 = STYLED_ITEM ( 'NONE', ( #325 ), #138 ) ;
#339 = VECTOR ( 'NONE', #286, 1000.000000000000000 ) ;
#340 = ORIENTED_EDGE ( 'NONE', *, *, #209, .F. ) ;
#341 = AXIS2_PLACEMENT_3D ( 'NONE', #193, #139, #36 ) ;
#342 = ORIENTED_EDGE ( 'NONE', *, *, #172, .F. ) ;
#343 = NEXT_ASSEMBLY_USAGE_OCCURRENCE ( 'NAUO1', ' ', ' ', #337, #319, $ ) ;
ENDSEC;
END-ISO-10303-21;
