ISO-10303-21;
HEADER;
FILE_DESCRIPTION (( 'STEP AP214' ),
    '1' );
FILE_NAME ('Ñáîðêà2.STEP',
    '2025-03-28T09:01:53',
    ( '' ),
    ( '' ),
    'SwSTEP 2.0',
    'SolidWorks 2025',
    '' );
FILE_SCHEMA (( 'AUTOMOTIVE_DESIGN' ));
ENDSEC;

DATA;
#1 = ITEM_DEFINED_TRANSFORMATION ( 'NONE', 'NONE', #302,  #275 ) ;
#2 = VECTOR ( 'NONE', #306, 1000.000000000000000 ) ;
#3 = VERTEX_POINT ( 'NONE', #129 ) ;
#4 = DIRECTION ( 'NONE',  ( 0.000000000000000000, 1.000000000000000000, 0.000000000000000000 ) ) ;
#5 = CARTESIAN_POINT ( 'NONE',  ( 10.00000000000000000, 10.00000000000000000, 1000.000000000000000 ) ) ;
#6 = UNCERTAINTY_MEASURE_WITH_UNIT (LENGTH_MEASURE( 1.000000000000000082E-05 ), #121, 'distance_accuracy_value', 'NONE');
#7 =( NAMED_UNIT ( * ) SI_UNIT ( $, .STERADIAN. ) SOLID_ANGLE_UNIT ( ) );
#8 = VECTOR ( 'NONE', #37, 1000.000000000000000 ) ;
#9 = ORIENTED_EDGE ( 'NONE', *, *, #101, .F. ) ;
#10 = EDGE_CURVE ( 'NONE', #320, #3, #322, .T. ) ;
#11 = CARTESIAN_POINT ( 'NONE',  ( 8.500000000000003553, -8.500000000000000000, 1000.000000000000000 ) ) ;
#12 = VECTOR ( 'NONE', #223, 1000.000000000000000 ) ;
#13 = EDGE_CURVE ( 'NONE', #3, #327, #353, .T. ) ;
#14 = CARTESIAN_POINT ( 'NONE',  ( -10.00000000000000000, 10.00000000000000000, 0.000000000000000000 ) ) ;
#15 =( NAMED_UNIT ( * ) SI_UNIT ( $, .STERADIAN. ) SOLID_ANGLE_UNIT ( ) );
#16 = DIRECTION ( 'NONE',  ( -1.000000000000000000, 0.000000000000000000, 0.000000000000000000 ) ) ;
#17 = CARTESIAN_POINT ( 'NONE',  ( -8.500000000000000000, -8.500000000000000000, 1000.000000000000000 ) ) ;
#18 = PRODUCT_DEFINITION_SHAPE ( 'NONE', 'NONE',  #99 ) ;
#19 = LINE ( 'NONE', #48, #325 ) ;
#20 = FACE_OUTER_BOUND ( 'NONE', #344, .T. ) ;
#21 = DIRECTION ( 'NONE',  ( 1.000000000000000000, 0.000000000000000000, 0.000000000000000000 ) ) ;
#22 = PRESENTATION_STYLE_ASSIGNMENT (( #246 ) ) ;
#23 = LINE ( 'NONE', #25, #269 ) ;
#24 = ORIENTED_EDGE ( 'NONE', *, *, #203, .F. ) ;
#25 = CARTESIAN_POINT ( 'NONE',  ( -8.500000000000000000, 8.500000000000000000, 1000.000000000000000 ) ) ;
#26 = ADVANCED_FACE ( 'NONE', ( #150 ), #149, .F. ) ;
#27 = ORIENTED_EDGE ( 'NONE', *, *, #264, .T. ) ;
#28 = PRODUCT_RELATED_PRODUCT_CATEGORY ( 'part', '', ( #329 ) ) ;
#29 = MANIFOLD_SOLID_BREP ( '\X2\0411043e0431044b0448043a0430\X0\-\X2\0412044b0442044f043d04430442044c\X0\1', #268 ) ;
#30 = VECTOR ( 'NONE', #67, 1000.000000000000000 ) ;
#31 = VECTOR ( 'NONE', #273, 1000.000000000000000 ) ;
#32 = CARTESIAN_POINT ( 'NONE',  ( -10.00000000000000000, -10.00000000000000000, 1000.000000000000000 ) ) ;
#33 = ORIENTED_EDGE ( 'NONE', *, *, #307, .F. ) ;
#34 = ORIENTED_EDGE ( 'NONE', *, *, #358, .T. ) ;
#35 = PLANE ( 'NONE',  #178 ) ;
#36 = EDGE_CURVE ( 'NONE', #320, #94, #298, .T. ) ;
#37 = DIRECTION ( 'NONE',  ( -0.000000000000000000, -1.000000000000000000, -0.000000000000000000 ) ) ;
#38 = CARTESIAN_POINT ( 'NONE',  ( 10.00000000000000000, -10.00000000000000000, 1000.000000000000000 ) ) ;
#39 = EDGE_CURVE ( 'NONE', #310, #87, #70, .T. ) ;
#40 = DIRECTION ( 'NONE',  ( 0.000000000000000000, 0.000000000000000000, 1.000000000000000000 ) ) ;
#41 = DIRECTION ( 'NONE',  ( 1.000000000000000000, 0.000000000000000000, 0.000000000000000000 ) ) ;
#42 = CARTESIAN_POINT ( 'NONE',  ( -10.00000000000000000, 10.00000000000000000, 0.000000000000000000 ) ) ;
#43 = CARTESIAN_POINT ( 'NONE',  ( 8.500000000000003553, 8.500000000000000000, 1000.000000000000000 ) ) ;
#44 = FILL_AREA_STYLE_COLOUR ( '', #155 ) ;
#45 = DIRECTION ( 'NONE',  ( -1.000000000000000000, 0.000000000000000000, -0.000000000000000000 ) ) ;
#46 = CARTESIAN_POINT ( 'NONE',  ( -10.00000000000000000, -10.00000000000000000, 0.000000000000000000 ) ) ;
#47 = PLANE ( 'NONE',  #58 ) ;
#48 = CARTESIAN_POINT ( 'NONE',  ( -10.00000000000000000, -10.00000000000000000, 1000.000000000000000 ) ) ;
#49 = PRODUCT_DEFINITION_FORMATION_WITH_SPECIFIED_SOURCE ( 'ANY', '', #329, .NOT_KNOWN. ) ;
#50 = CARTESIAN_POINT ( 'NONE',  ( 10.00000000000000000, -10.00000000000000000, 1000.000000000000000 ) ) ;
#51 = ORIENTED_EDGE ( 'NONE', *, *, #252, .T. ) ;
#52 = ADVANCED_FACE ( 'NONE', ( #356 ), #35, .T. ) ;
#53 = CARTESIAN_POINT ( 'NONE',  ( -8.500000000000000000, -8.500000000000000000, 1000.000000000000000 ) ) ;
#54 = EDGE_LOOP ( 'NONE', ( #64, #294, #24, #286 ) ) ;
#55 = DIRECTION ( 'NONE',  ( 0.000000000000000000, -1.000000000000000000, 0.000000000000000000 ) ) ;
#56 = ORIENTED_EDGE ( 'NONE', *, *, #36, .F. ) ;
#57 = PRODUCT_CONTEXT ( 'NONE', #289, 'mechanical' ) ;
#58 = AXIS2_PLACEMENT_3D ( 'NONE', #53, #280, #194 ) ;
#59 = SHAPE_REPRESENTATION ( 'PS20S1.5 \X2\041f0440043e04440438043b044c\X0\ \X2\0430043b044e043c0438043d043804350432044b0439\X0\, \X2\043a043204300434044004300442\X0\ 20x20x1,5 (\X2\0410043d\X0\. \X2\044104350440043504310440043e\X0\)_00', ( #275 ), #210 ) ;
#60 = EDGE_LOOP ( 'NONE', ( #92, #9, #85, #263 ) ) ;
#61 = ORIENTED_EDGE ( 'NONE', *, *, #84, .T. ) ;
#62 = SHAPE_DEFINITION_REPRESENTATION ( #128, #59 ) ;
#63 = UNCERTAINTY_MEASURE_WITH_UNIT (LENGTH_MEASURE( 1.000000000000000082E-05 ), #82, 'distance_accuracy_value', 'NONE');
#64 = ORIENTED_EDGE ( 'NONE', *, *, #163, .F. ) ;
#65 = AXIS2_PLACEMENT_3D ( 'NONE', #112, #366, #368 ) ;
#66 = ORIENTED_EDGE ( 'NONE', *, *, #10, .F. ) ;
#67 = DIRECTION ( 'NONE',  ( -0.000000000000000000, -0.000000000000000000, -1.000000000000000000 ) ) ;
#68 = VECTOR ( 'NONE', #123, 1000.000000000000000 ) ;
#69 = VECTOR ( 'NONE', #338, 1000.000000000000000 ) ;
#70 = LINE ( 'NONE', #211, #293 ) ;
#71 = LINE ( 'NONE', #43, #151 ) ;
#72 = CARTESIAN_POINT ( 'NONE',  ( 0.000000000000000000, 0.000000000000000000, 0.000000000000000000 ) ) ;
#73 =( NAMED_UNIT ( * ) SI_UNIT ( $, .STERADIAN. ) SOLID_ANGLE_UNIT ( ) );
#74 = FILL_AREA_STYLE ('',( #44 ) ) ;
#75 = LINE ( 'NONE', #243, #182 ) ;
#76 = DIRECTION ( 'NONE',  ( -0.000000000000000000, -0.000000000000000000, -1.000000000000000000 ) ) ;
#77 = DIRECTION ( 'NONE',  ( 1.000000000000000000, 0.000000000000000000, 0.000000000000000000 ) ) ;
#78 = DIRECTION ( 'NONE',  ( 0.000000000000000000, 1.000000000000000000, 0.000000000000000000 ) ) ;
#79 = SHAPE_REPRESENTATION_RELATIONSHIP ( 'NONE' , 'NONE' ,  #59, #350 ) ;
#80 = LINE ( 'NONE', #86, #218 ) ;
#81 = FACE_BOUND ( 'NONE', #349, .T. ) ;
#82 =( LENGTH_UNIT ( ) NAMED_UNIT ( * ) SI_UNIT ( .MILLI., .METRE. ) );
#83 = LINE ( 'NONE', #166, #285 ) ;
#84 = EDGE_CURVE ( 'NONE', #312, #170, #148, .T. ) ;
#85 = ORIENTED_EDGE ( 'NONE', *, *, #186, .T. ) ;
#86 = CARTESIAN_POINT ( 'NONE',  ( 10.00000000000000000, -10.00000000000000000, 0.000000000000000000 ) ) ;
#87 = VERTEX_POINT ( 'NONE', #245 ) ;
#88 = EDGE_CURVE ( 'NONE', #3, #119, #251, .T. ) ;
#89 = CARTESIAN_POINT ( 'NONE',  ( -8.500000000000000000, 8.500000000000000000, 1000.000000000000000 ) ) ;
#90 = ORIENTED_EDGE ( 'NONE', *, *, #264, .F. ) ;
#91 = APPLICATION_CONTEXT ( 'automotive_design' ) ;
#92 = ORIENTED_EDGE ( 'NONE', *, *, #84, .F. ) ;
#93 = ORIENTED_EDGE ( 'NONE', *, *, #88, .F. ) ;
#94 = VERTEX_POINT ( 'NONE', #247 ) ;
#95 = APPLICATION_PROTOCOL_DEFINITION ( 'draft international standard', 'automotive_design', 1998, #289 ) ;
#96 = EDGE_CURVE ( 'NONE', #172, #228, #136, .T. ) ;
#97 = AXIS2_PLACEMENT_3D ( 'NONE', #72, #40, #267 ) ;
#98 = ORIENTED_EDGE ( 'NONE', *, *, #307, .T. ) ;
#99 = PRODUCT_DEFINITION ( 'UNKNOWN', '', #49, #237 ) ;
#100 = SURFACE_STYLE_FILL_AREA ( #292 ) ;
#101 = EDGE_CURVE ( 'NONE', #114, #312, #274, .T. ) ;
#102 = ORIENTED_EDGE ( 'NONE', *, *, #39, .T. ) ;
#103 = VECTOR ( 'NONE', #21, 1000.000000000000000 ) ;
#104 = DIRECTION ( 'NONE',  ( 1.000000000000000000, 0.000000000000000000, 0.000000000000000000 ) ) ;
#105 = PLANE ( 'NONE',  #262 ) ;
#106 = AXIS2_PLACEMENT_3D ( 'NONE', #169, #321, #281 ) ;
#107 = CARTESIAN_POINT ( 'NONE',  ( 8.500000000000003553, 8.500000000000000000, 1000.000000000000000 ) ) ;
#108 = CARTESIAN_POINT ( 'NONE',  ( 8.500000000000003553, -8.500000000000000000, 1000.000000000000000 ) ) ;
#109 = LINE ( 'NONE', #164, #130 ) ;
#110 = CARTESIAN_POINT ( 'NONE',  ( -8.500000000000000000, 8.500000000000000000, 1000.000000000000000 ) ) ;
#111 = EDGE_CURVE ( 'NONE', #228, #312, #83, .T. ) ;
#112 = CARTESIAN_POINT ( 'NONE',  ( 0.000000000000000000, 0.000000000000000000, 1000.000000000000000 ) ) ;
#113 = DIRECTION ( 'NONE',  ( -0.000000000000000000, -0.000000000000000000, -1.000000000000000000 ) ) ;
#114 = VERTEX_POINT ( 'NONE', #158 ) ;
#115 = AXIS2_PLACEMENT_3D ( 'NONE', #259, #4, #261 ) ;
#116 = AXIS2_PLACEMENT_3D ( 'NONE', #193, #303, #241 ) ;
#117 = CARTESIAN_POINT ( 'NONE',  ( -10.00000000000000000, -10.00000000000000000, 1000.000000000000000 ) ) ;
#118 =( NAMED_UNIT ( * ) PLANE_ANGLE_UNIT ( ) SI_UNIT ( $, .RADIAN. ) );
#119 = VERTEX_POINT ( 'NONE', #42 ) ;
#120 = ORIENTED_EDGE ( 'NONE', *, *, #111, .F. ) ;
#121 =( LENGTH_UNIT ( ) NAMED_UNIT ( * ) SI_UNIT ( .MILLI., .METRE. ) );
#122 = ORIENTED_EDGE ( 'NONE', *, *, #252, .F. ) ;
#123 = DIRECTION ( 'NONE',  ( -1.000000000000000000, -0.000000000000000000, -0.000000000000000000 ) ) ;
#124 = ADVANCED_FACE ( 'NONE', ( #197 ), #217, .T. ) ;
#125 = EDGE_LOOP ( 'NONE', ( #61, #372, #250, #374 ) ) ;
#126 = VERTEX_POINT ( 'NONE', #50 ) ;
#127 =( GEOMETRIC_REPRESENTATION_CONTEXT ( 3 ) GLOBAL_UNCERTAINTY_ASSIGNED_CONTEXT ( ( #63 ) ) GLOBAL_UNIT_ASSIGNED_CONTEXT ( ( #82, #196, #15 ) ) REPRESENTATION_CONTEXT ( 'NONE', 'WORKASPACE' ) );
#128 = PRODUCT_DEFINITION_SHAPE ( 'NONE', 'NONE',  #260 ) ;
#129 = CARTESIAN_POINT ( 'NONE',  ( -10.00000000000000000, 10.00000000000000000, 1000.000000000000000 ) ) ;
#130 = VECTOR ( 'NONE', #104, 1000.000000000000000 ) ;
#131 = LINE ( 'NONE', #195, #103 ) ;
#132 = CARTESIAN_POINT ( 'NONE',  ( 0.000000000000000000, 0.000000000000000000, 0.000000000000000000 ) ) ;
#133 = DIRECTION ( 'NONE',  ( 0.000000000000000000, 1.000000000000000000, 0.000000000000000000 ) ) ;
#134 = ADVANCED_FACE ( 'NONE', ( #311 ), #337, .F. ) ;
#135 = DIRECTION ( 'NONE',  ( -1.000000000000000000, -0.000000000000000000, -0.000000000000000000 ) ) ;
#136 = LINE ( 'NONE', #367, #334 ) ;
#137 = PLANE ( 'NONE',  #227 ) ;
#138 = FACE_OUTER_BOUND ( 'NONE', #288, .T. ) ;
#139 = LINE ( 'NONE', #342, #143 ) ;
#140 = ORIENTED_EDGE ( 'NONE', *, *, #363, .F. ) ;
#141 = CARTESIAN_POINT ( 'NONE',  ( -8.500000000000000000, -8.500000000000000000, 0.000000000000000000 ) ) ;
#142 = ORIENTED_EDGE ( 'NONE', *, *, #163, .T. ) ;
#143 = VECTOR ( 'NONE', #229, 1000.000000000000000 ) ;
#144 = EDGE_LOOP ( 'NONE', ( #202, #122, #319, #98 ) ) ;
#145 = ORIENTED_EDGE ( 'NONE', *, *, #240, .T. ) ;
#146 =( NAMED_UNIT ( * ) SI_UNIT ( $, .STERADIAN. ) SOLID_ANGLE_UNIT ( ) );
#147 = ORIENTED_EDGE ( 'NONE', *, *, #254, .F. ) ;
#148 = LINE ( 'NONE', #258, #8 ) ;
#149 = PLANE ( 'NONE',  #115 ) ;
#150 = FACE_OUTER_BOUND ( 'NONE', #230, .T. ) ;
#151 = VECTOR ( 'NONE', #305, 1000.000000000000000 ) ;
#152 = DIRECTION ( 'NONE',  ( 1.000000000000000000, 0.000000000000000000, 0.000000000000000000 ) ) ;
#153 =( LENGTH_UNIT ( ) NAMED_UNIT ( * ) SI_UNIT ( .MILLI., .METRE. ) );
#154 = EDGE_CURVE ( 'NONE', #255, #114, #23, .T. ) ;
#155 = COLOUR_RGB ( '',0.8666666666666666963, 0.9098039215686274384, 1.000000000000000000 ) ;
#156 = LINE ( 'NONE', #11, #318 ) ;
#157 = SURFACE_STYLE_FILL_AREA ( #74 ) ;
#158 = CARTESIAN_POINT ( 'NONE',  ( -8.500000000000000000, 8.500000000000000000, 1000.000000000000000 ) ) ;
#159 = EDGE_CURVE ( 'NONE', #310, #170, #139, .T. ) ;
#160 = PLANE ( 'NONE',  #65 ) ;
#161 = LINE ( 'NONE', #272, #2 ) ;
#162 = PRESENTATION_LAYER_ASSIGNMENT (  '', '', ( #205 ) ) ;
#163 = EDGE_CURVE ( 'NONE', #224, #94, #80, .T. ) ;
#164 = CARTESIAN_POINT ( 'NONE',  ( -10.00000000000000000, -10.00000000000000000, 1000.000000000000000 ) ) ;
#165 = FACE_OUTER_BOUND ( 'NONE', #315, .T. ) ;
#166 = CARTESIAN_POINT ( 'NONE',  ( -8.500000000000000000, 8.500000000000000000, 0.000000000000000000 ) ) ;
#167 = ORIENTED_EDGE ( 'NONE', *, *, #36, .T. ) ;
#168 = FACE_OUTER_BOUND ( 'NONE', #256, .T. ) ;
#169 = CARTESIAN_POINT ( 'NONE',  ( 0.000000000000000000, 0.000000000000000000, 0.000000000000000000 ) ) ;
#170 = VERTEX_POINT ( 'NONE', #141 ) ;
#171 = CARTESIAN_POINT ( 'NONE',  ( 10.00000000000000000, -10.00000000000000000, 0.000000000000000000 ) ) ;
#172 = VERTEX_POINT ( 'NONE', #199 ) ;
#173 = AXIS2_PLACEMENT_3D ( 'NONE', #117, #77, #278 ) ;
#174 = ORIENTED_EDGE ( 'NONE', *, *, #249, .F. ) ;
#175 = ORIENTED_EDGE ( 'NONE', *, *, #326, .T. ) ;
#176 = SHAPE_REPRESENTATION ( '\X2\04210431043e0440043a0430\X0\2', ( #106, #302 ), #348 ) ;
#177 = ORIENTED_EDGE ( 'NONE', *, *, #154, .T. ) ;
#178 = AXIS2_PLACEMENT_3D ( 'NONE', #265, #152, #351 ) ;
#179 = CARTESIAN_POINT ( 'NONE',  ( -10.00000000000000000, 10.00000000000000000, 1000.000000000000000 ) ) ;
#180 = DIRECTION ( 'NONE',  ( 1.000000000000000000, 0.000000000000000000, 0.000000000000000000 ) ) ;
#181 = PRODUCT ( 'PS20S1.5 \X2\041f0440043e04440438043b044c\X0\ \X2\0430043b044e043c0438043d043804350432044b0439\X0\, \X2\043a043204300434044004300442\X0\ 20x20x1,5 (\X2\0410043d\X0\. \X2\044104350440043504310440043e\X0\)_00', 'PS20S1.5 \X2\041f0440043e04440438043b044c\X0\ \X2\0430043b044e043c0438043d043804350432044b0439\X0\, \X2\043a043204300434044004300442\X0\ 20x20x1,5 (\X2\0410043d\X0\. \X2\044104350440043504310440043e\X0\)_00', '', ( #57 ) ) ;
#182 = VECTOR ( 'NONE', #188, 1000.000000000000000 ) ;
#183 = DIRECTION ( 'NONE',  ( -0.000000000000000000, -1.000000000000000000, -0.000000000000000000 ) ) ;
#184 = ADVANCED_FACE ( 'NONE', ( #168 ), #47, .T. ) ;
#185 = CARTESIAN_POINT ( 'NONE',  ( -10.00000000000000000, -10.00000000000000000, 1000.000000000000000 ) ) ;
#186 = EDGE_CURVE ( 'NONE', #114, #310, #75, .T. ) ;
#187 = CARTESIAN_POINT ( 'NONE',  ( 0.000000000000000000, 0.000000000000000000, 0.000000000000000000 ) ) ;
#188 = DIRECTION ( 'NONE',  ( -0.000000000000000000, -1.000000000000000000, -0.000000000000000000 ) ) ;
#189 = MECHANICAL_DESIGN_GEOMETRIC_PRESENTATION_REPRESENTATION (  '', ( #343 ), #127 ) ;
#190 = DIRECTION ( 'NONE',  ( 0.000000000000000000, 0.000000000000000000, 1.000000000000000000 ) ) ;
#191 = CARTESIAN_POINT ( 'NONE',  ( 0.000000000000000000, 0.000000000000000000, 0.000000000000000000 ) ) ;
#192 = ADVANCED_FACE ( 'NONE', ( #301, #361 ), #105, .T. ) ;
#193 = CARTESIAN_POINT ( 'NONE',  ( -10.00000000000000000, 10.00000000000000000, 1000.000000000000000 ) ) ;
#194 = DIRECTION ( 'NONE',  ( 0.000000000000000000, -0.000000000000000000, 1.000000000000000000 ) ) ;
#195 = CARTESIAN_POINT ( 'NONE',  ( -8.500000000000000000, -8.500000000000000000, 0.000000000000000000 ) ) ;
#196 =( NAMED_UNIT ( * ) PLANE_ANGLE_UNIT ( ) SI_UNIT ( $, .RADIAN. ) );
#197 = FACE_OUTER_BOUND ( 'NONE', #144, .T. ) ;
#198 = ORIENTED_EDGE ( 'NONE', *, *, #39, .F. ) ;
#199 = CARTESIAN_POINT ( 'NONE',  ( 8.500000000000003553, -8.500000000000000000, 0.000000000000000000 ) ) ;
#200 = PRODUCT_DEFINITION_CONTEXT ( 'detailed design', #335, 'design' ) ;
#201 = FACE_OUTER_BOUND ( 'NONE', #238, .T. ) ;
#202 = ORIENTED_EDGE ( 'NONE', *, *, #96, .F. ) ;
#203 = EDGE_CURVE ( 'NONE', #119, #346, #161, .T. ) ;
#204 = ORIENTED_EDGE ( 'NONE', *, *, #13, .F. ) ;
#205 = STYLED_ITEM ( 'NONE', ( #208 ), #29 ) ;
#206 = VECTOR ( 'NONE', #113, 1000.000000000000000 ) ;
#207 = ORIENTED_EDGE ( 'NONE', *, *, #101, .T. ) ;
#208 = PRESENTATION_STYLE_ASSIGNMENT (( #297 ) ) ;
#209 = ORIENTED_EDGE ( 'NONE', *, *, #159, .F. ) ;
#210 =( GEOMETRIC_REPRESENTATION_CONTEXT ( 3 ) GLOBAL_UNCERTAINTY_ASSIGNED_CONTEXT ( ( #282 ) ) GLOBAL_UNIT_ASSIGNED_CONTEXT ( ( #153, #266, #73 ) ) REPRESENTATION_CONTEXT ( 'NONE', 'WORKASPACE' ) );
#211 = CARTESIAN_POINT ( 'NONE',  ( -8.500000000000000000, -8.500000000000000000, 1000.000000000000000 ) ) ;
#212 = EDGE_LOOP ( 'NONE', ( #341, #328, #204, #373 ) ) ;
#213 = VECTOR ( 'NONE', #78, 1000.000000000000000 ) ;
#214 = DIRECTION ( 'NONE',  ( 1.000000000000000000, 0.000000000000000000, 0.000000000000000000 ) ) ;
#215 = CARTESIAN_POINT ( 'NONE',  ( 10.00000000000000000, -10.00000000000000000, 1000.000000000000000 ) ) ;
#216 = ADVANCED_FACE ( 'NONE', ( #20 ), #137, .T. ) ;
#217 = PLANE ( 'NONE',  #234 ) ;
#218 = VECTOR ( 'NONE', #133, 1000.000000000000000 ) ;
#219 = LINE ( 'NONE', #331, #354 ) ;
#220 = DIRECTION ( 'NONE',  ( 0.000000000000000000, 0.000000000000000000, 1.000000000000000000 ) ) ;
#221 = CARTESIAN_POINT ( 'NONE',  ( -8.500000000000000000, 8.500000000000000000, 0.000000000000000000 ) ) ;
#222 = DIRECTION ( 'NONE',  ( 0.000000000000000000, 0.000000000000000000, 1.000000000000000000 ) ) ;
#223 = DIRECTION ( 'NONE',  ( -0.000000000000000000, -0.000000000000000000, -1.000000000000000000 ) ) ;
#224 = VERTEX_POINT ( 'NONE', #171 ) ;
#225 = DIRECTION ( 'NONE',  ( -1.000000000000000000, -0.000000000000000000, -0.000000000000000000 ) ) ;
#226 = VECTOR ( 'NONE', #183, 1000.000000000000000 ) ;
#227 = AXIS2_PLACEMENT_3D ( 'NONE', #89, #55, #313 ) ;
#228 = VERTEX_POINT ( 'NONE', #345 ) ;
#229 = DIRECTION ( 'NONE',  ( -0.000000000000000000, -0.000000000000000000, -1.000000000000000000 ) ) ;
#230 = EDGE_LOOP ( 'NONE', ( #145, #140, #90, #175 ) ) ;
#231 = ADVANCED_FACE ( 'NONE', ( #201, #81 ), #160, .F. ) ;
#232 = ORIENTED_EDGE ( 'NONE', *, *, #249, .T. ) ;
#233 = ORIENTED_EDGE ( 'NONE', *, *, #154, .F. ) ;
#234 = AXIS2_PLACEMENT_3D ( 'NONE', #108, #16, #220 ) ;
#235 =( LENGTH_UNIT ( ) NAMED_UNIT ( * ) SI_UNIT ( .MILLI., .METRE. ) );
#236 = LINE ( 'NONE', #360, #213 ) ;
#237 = PRODUCT_DEFINITION_CONTEXT ( 'detailed design', #91, 'design' ) ;
#238 = EDGE_LOOP ( 'NONE', ( #232, #296, #283, #27 ) ) ;
#239 = SURFACE_SIDE_STYLE ('',( #100 ) ) ;
#240 = EDGE_CURVE ( 'NONE', #346, #224, #219, .T. ) ;
#241 = DIRECTION ( 'NONE',  ( 0.000000000000000000, -0.000000000000000000, -1.000000000000000000 ) ) ;
#242 =( GEOMETRIC_REPRESENTATION_CONTEXT ( 3 ) GLOBAL_UNCERTAINTY_ASSIGNED_CONTEXT ( ( #291 ) ) GLOBAL_UNIT_ASSIGNED_CONTEXT ( ( #235, #323, #7 ) ) REPRESENTATION_CONTEXT ( 'NONE', 'WORKASPACE' ) );
#243 = CARTESIAN_POINT ( 'NONE',  ( -8.500000000000000000, -8.500000000000000000, 1000.000000000000000 ) ) ;
#244 = LINE ( 'NONE', #38, #31 ) ;
#245 = CARTESIAN_POINT ( 'NONE',  ( 8.500000000000003553, -8.500000000000000000, 1000.000000000000000 ) ) ;
#246 = SURFACE_STYLE_USAGE ( .BOTH. , #339 ) ;
#247 = CARTESIAN_POINT ( 'NONE',  ( 10.00000000000000000, 10.00000000000000000, 0.000000000000000000 ) ) ;
#248 = PLANE ( 'NONE',  #116 ) ;
#249 = EDGE_CURVE ( 'NONE', #126, #320, #332, .T. ) ;
#250 = ORIENTED_EDGE ( 'NONE', *, *, #96, .T. ) ;
#251 = LINE ( 'NONE', #369, #12 ) ;
#252 = EDGE_CURVE ( 'NONE', #87, #172, #156, .T. ) ;
#253 = ORIENTED_EDGE ( 'NONE', *, *, #363, .T. ) ;
#254 = EDGE_CURVE ( 'NONE', #87, #255, #236, .T. ) ;
#255 = VERTEX_POINT ( 'NONE', #107 ) ;
#256 = EDGE_LOOP ( 'NONE', ( #355, #209, #102, #51 ) ) ;
#257 = ORIENTED_EDGE ( 'NONE', *, *, #186, .F. ) ;
#258 = CARTESIAN_POINT ( 'NONE',  ( -8.500000000000000000, -8.500000000000000000, 0.000000000000000000 ) ) ;
#259 = CARTESIAN_POINT ( 'NONE',  ( -10.00000000000000000, -10.00000000000000000, 1000.000000000000000 ) ) ;
#260 = PRODUCT_DEFINITION ( 'UNKNOWN', '', #317, #200 ) ;
#261 = DIRECTION ( 'NONE',  ( 0.000000000000000000, -0.000000000000000000, 1.000000000000000000 ) ) ;
#262 = AXIS2_PLACEMENT_3D ( 'NONE', #191, #304, #45 ) ;
#263 = ORIENTED_EDGE ( 'NONE', *, *, #159, .T. ) ;
#264 = EDGE_CURVE ( 'NONE', #327, #126, #109, .T. ) ;
#265 = CARTESIAN_POINT ( 'NONE',  ( -8.500000000000000000, -8.500000000000000000, 1000.000000000000000 ) ) ;
#266 =( NAMED_UNIT ( * ) PLANE_ANGLE_UNIT ( ) SI_UNIT ( $, .RADIAN. ) );
#267 = DIRECTION ( 'NONE',  ( 1.000000000000000000, 0.000000000000000000, 0.000000000000000000 ) ) ;
#268 = CLOSED_SHELL ( 'NONE', ( #231, #192, #277, #295, #134, #26, #184, #124, #216, #52 ) ) ;
#269 = VECTOR ( 'NONE', #225, 1000.000000000000000 ) ;
#270 = DIRECTION ( 'NONE',  ( 0.000000000000000000, 1.000000000000000000, 0.000000000000000000 ) ) ;
#271 = CARTESIAN_POINT ( 'NONE',  ( 10.00000000000000000, -10.00000000000000000, 1000.000000000000000 ) ) ;
#272 = CARTESIAN_POINT ( 'NONE',  ( -10.00000000000000000, -10.00000000000000000, 0.000000000000000000 ) ) ;
#273 = DIRECTION ( 'NONE',  ( -0.000000000000000000, -0.000000000000000000, -1.000000000000000000 ) ) ;
#274 = LINE ( 'NONE', #110, #206 ) ;
#275 = AXIS2_PLACEMENT_3D ( 'NONE', #132, #222, #333 ) ;
#276 = CARTESIAN_POINT ( 'NONE',  ( 10.00000000000000000, 10.00000000000000000, 1000.000000000000000 ) ) ;
#277 = ADVANCED_FACE ( 'NONE', ( #165 ), #336, .F. ) ;
#278 = DIRECTION ( 'NONE',  ( 0.000000000000000000, 0.000000000000000000, -1.000000000000000000 ) ) ;
#279 = PRODUCT_DEFINITION_SHAPE ( 'NONE', 'NONE',  #375 ) ;
#280 = DIRECTION ( 'NONE',  ( 0.000000000000000000, 1.000000000000000000, 0.000000000000000000 ) ) ;
#281 = DIRECTION ( 'NONE',  ( 1.000000000000000000, 0.000000000000000000, 0.000000000000000000 ) ) ;
#282 = UNCERTAINTY_MEASURE_WITH_UNIT (LENGTH_MEASURE( 1.000000000000000082E-05 ), #153, 'distance_accuracy_value', 'NONE');
#283 = ORIENTED_EDGE ( 'NONE', *, *, #13, .T. ) ;
#284 = EDGE_CURVE ( 'NONE', #170, #172, #131, .T. ) ;
#285 = VECTOR ( 'NONE', #365, 1000.000000000000000 ) ;
#286 = ORIENTED_EDGE ( 'NONE', *, *, #358, .F. ) ;
#287 = APPLICATION_PROTOCOL_DEFINITION ( 'draft international standard', 'automotive_design', 1998, #335 ) ;
#288 = EDGE_LOOP ( 'NONE', ( #34, #93, #66, #167 ) ) ;
#289 = APPLICATION_CONTEXT ( 'automotive_design' ) ;
#290 = CONTEXT_DEPENDENT_SHAPE_REPRESENTATION ( #359, #279 ) ;
#291 = UNCERTAINTY_MEASURE_WITH_UNIT (LENGTH_MEASURE( 1.000000000000000082E-05 ), #235, 'distance_accuracy_value', 'NONE');
#292 = FILL_AREA_STYLE ('',( #330 ) ) ;
#293 = VECTOR ( 'NONE', #180, 1000.000000000000000 ) ;
#294 = ORIENTED_EDGE ( 'NONE', *, *, #240, .F. ) ;
#295 = ADVANCED_FACE ( 'NONE', ( #138 ), #248, .F. ) ;
#296 = ORIENTED_EDGE ( 'NONE', *, *, #10, .T. ) ;
#297 = SURFACE_STYLE_USAGE ( .BOTH. , #239 ) ;
#298 = LINE ( 'NONE', #5, #30 ) ;
#299 = LINE ( 'NONE', #14, #357 ) ;
#300 = DIRECTION ( 'NONE',  ( 0.000000000000000000, 0.000000000000000000, 1.000000000000000000 ) ) ;
#301 = FACE_OUTER_BOUND ( 'NONE', #54, .T. ) ;
#302 = AXIS2_PLACEMENT_3D ( 'NONE', #187, #300, #41 ) ;
#303 = DIRECTION ( 'NONE',  ( 0.000000000000000000, -1.000000000000000000, 0.000000000000000000 ) ) ;
#304 = DIRECTION ( 'NONE',  ( 0.000000000000000000, 0.000000000000000000, -1.000000000000000000 ) ) ;
#305 = DIRECTION ( 'NONE',  ( -0.000000000000000000, -0.000000000000000000, -1.000000000000000000 ) ) ;
#306 = DIRECTION ( 'NONE',  ( -0.000000000000000000, -1.000000000000000000, -0.000000000000000000 ) ) ;
#307 = EDGE_CURVE ( 'NONE', #255, #228, #71, .T. ) ;
#308 = DIRECTION ( 'NONE',  ( -0.000000000000000000, -0.000000000000000000, -1.000000000000000000 ) ) ;
#309 = PRESENTATION_LAYER_ASSIGNMENT (  '', '', ( #343 ) ) ;
#310 = VERTEX_POINT ( 'NONE', #17 ) ;
#311 = FACE_OUTER_BOUND ( 'NONE', #212, .T. ) ;
#312 = VERTEX_POINT ( 'NONE', #221 ) ;
#313 = DIRECTION ( 'NONE',  ( 0.000000000000000000, -0.000000000000000000, -1.000000000000000000 ) ) ;
#314 = SHAPE_DEFINITION_REPRESENTATION ( #18, #176 ) ;
#315 = EDGE_LOOP ( 'NONE', ( #142, #56, #174, #253 ) ) ;
#316 = APPLICATION_PROTOCOL_DEFINITION ( 'draft international standard', 'automotive_design', 1998, #370 ) ;
#317 = PRODUCT_DEFINITION_FORMATION_WITH_SPECIFIED_SOURCE ( 'ANY', '', #181, .NOT_KNOWN. ) ;
#318 = VECTOR ( 'NONE', #76, 1000.000000000000000 ) ;
#319 = ORIENTED_EDGE ( 'NONE', *, *, #254, .T. ) ;
#320 = VERTEX_POINT ( 'NONE', #276 ) ;
#321 = DIRECTION ( 'NONE',  ( 0.000000000000000000, 0.000000000000000000, 1.000000000000000000 ) ) ;
#322 = LINE ( 'NONE', #179, #68 ) ;
#323 =( NAMED_UNIT ( * ) PLANE_ANGLE_UNIT ( ) SI_UNIT ( $, .RADIAN. ) );
#324 = COLOUR_RGB ( '',0.8666666666666666963, 0.9098039215686274384, 1.000000000000000000 ) ;
#325 = VECTOR ( 'NONE', #308, 1000.000000000000000 ) ;
#326 = EDGE_CURVE ( 'NONE', #327, #346, #19, .T. ) ;
#327 = VERTEX_POINT ( 'NONE', #185 ) ;
#328 = ORIENTED_EDGE ( 'NONE', *, *, #326, .F. ) ;
#329 = PRODUCT ( '\X2\04210431043e0440043a0430\X0\2', '\X2\04210431043e0440043a0430\X0\2', '', ( #347 ) ) ;
#330 = FILL_AREA_STYLE_COLOUR ( '', #324 ) ;
#331 = CARTESIAN_POINT ( 'NONE',  ( -10.00000000000000000, -10.00000000000000000, 0.000000000000000000 ) ) ;
#332 = LINE ( 'NONE', #271, #69 ) ;
#333 = DIRECTION ( 'NONE',  ( 1.000000000000000000, 0.000000000000000000, 0.000000000000000000 ) ) ;
#334 = VECTOR ( 'NONE', #270, 1000.000000000000000 ) ;
#335 = APPLICATION_CONTEXT ( 'automotive_design' ) ;
#336 = PLANE ( 'NONE',  #371 ) ;
#337 = PLANE ( 'NONE',  #173 ) ;
#338 = DIRECTION ( 'NONE',  ( 0.000000000000000000, 1.000000000000000000, 0.000000000000000000 ) ) ;
#339 = SURFACE_SIDE_STYLE ('',( #157 ) ) ;
#340 = PRODUCT_RELATED_PRODUCT_CATEGORY ( 'part', '', ( #181 ) ) ;
#341 = ORIENTED_EDGE ( 'NONE', *, *, #203, .T. ) ;
#342 = CARTESIAN_POINT ( 'NONE',  ( -8.500000000000000000, -8.500000000000000000, 1000.000000000000000 ) ) ;
#343 = STYLED_ITEM ( 'NONE', ( #22 ), #350 ) ;
#344 = EDGE_LOOP ( 'NONE', ( #120, #33, #177, #207 ) ) ;
#345 = CARTESIAN_POINT ( 'NONE',  ( 8.500000000000003553, 8.500000000000000000, 0.000000000000000000 ) ) ;
#346 = VERTEX_POINT ( 'NONE', #46 ) ;
#347 = PRODUCT_CONTEXT ( 'NONE', #370, 'mechanical' ) ;
#348 =( GEOMETRIC_REPRESENTATION_CONTEXT ( 3 ) GLOBAL_UNCERTAINTY_ASSIGNED_CONTEXT ( ( #6 ) ) GLOBAL_UNIT_ASSIGNED_CONTEXT ( ( #121, #118, #146 ) ) REPRESENTATION_CONTEXT ( 'NONE', 'WORKASPACE' ) );
#349 = EDGE_LOOP ( 'NONE', ( #198, #257, #233, #147 ) ) ;
#350 = ADVANCED_BREP_SHAPE_REPRESENTATION ( '', ( #29, #275 ), #210 ) ;
#351 = DIRECTION ( 'NONE',  ( 0.000000000000000000, 0.000000000000000000, -1.000000000000000000 ) ) ;
#352 = APPLICATION_PROTOCOL_DEFINITION ( 'draft international standard', 'automotive_design', 1998, #91 ) ;
#353 = LINE ( 'NONE', #32, #226 ) ;
#354 = VECTOR ( 'NONE', #214, 1000.000000000000000 ) ;
#355 = ORIENTED_EDGE ( 'NONE', *, *, #284, .F. ) ;
#356 = FACE_OUTER_BOUND ( 'NONE', #60, .T. ) ;
#357 = VECTOR ( 'NONE', #135, 1000.000000000000000 ) ;
#358 = EDGE_CURVE ( 'NONE', #94, #119, #299, .T. ) ;
#359 =( REPRESENTATION_RELATIONSHIP ('NONE','NONE', #176, #59 ) REPRESENTATION_RELATIONSHIP_WITH_TRANSFORMATION ( #1 )SHAPE_REPRESENTATION_RELATIONSHIP( ) );
#360 = CARTESIAN_POINT ( 'NONE',  ( 8.500000000000003553, -8.500000000000000000, 1000.000000000000000 ) ) ;
#361 = FACE_BOUND ( 'NONE', #125, .T. ) ;
#362 = DIRECTION ( 'NONE',  ( -1.000000000000000000, 0.000000000000000000, 0.000000000000000000 ) ) ;
#363 = EDGE_CURVE ( 'NONE', #126, #224, #244, .T. ) ;
#364 = MECHANICAL_DESIGN_GEOMETRIC_PRESENTATION_REPRESENTATION (  '', ( #205 ), #242 ) ;
#365 = DIRECTION ( 'NONE',  ( -1.000000000000000000, -0.000000000000000000, -0.000000000000000000 ) ) ;
#366 = DIRECTION ( 'NONE',  ( 0.000000000000000000, 0.000000000000000000, -1.000000000000000000 ) ) ;
#367 = CARTESIAN_POINT ( 'NONE',  ( 8.500000000000003553, -8.500000000000000000, 0.000000000000000000 ) ) ;
#368 = DIRECTION ( 'NONE',  ( -1.000000000000000000, 0.000000000000000000, -0.000000000000000000 ) ) ;
#369 = CARTESIAN_POINT ( 'NONE',  ( -10.00000000000000000, 10.00000000000000000, 1000.000000000000000 ) ) ;
#370 = APPLICATION_CONTEXT ( 'automotive_design' ) ;
#371 = AXIS2_PLACEMENT_3D ( 'NONE', #215, #362, #190 ) ;
#372 = ORIENTED_EDGE ( 'NONE', *, *, #284, .T. ) ;
#373 = ORIENTED_EDGE ( 'NONE', *, *, #88, .T. ) ;
#374 = ORIENTED_EDGE ( 'NONE', *, *, #111, .T. ) ;
#375 = NEXT_ASSEMBLY_USAGE_OCCURRENCE ( 'NAUO1', ' ', ' ', #99, #260, $ ) ;
ENDSEC;
END-ISO-10303-21;
