ISO-10303-21;
HEADER;
FILE_DESCRIPTION (( 'STEP AP214' ),
    '1' );
FILE_NAME ('B512 Àëþìèíèåâàÿ òîðöåâàÿ çàãëóøêà 20õ60 (÷åðíàÿ).STEP',
    '2025-06-30T14:02:57',
    ( '' ),
    ( '' ),
    'SwSTEP 2.0',
    'SolidWorks 2025',
    '' );
FILE_SCHEMA (( 'AUTOMOTIVE_DESIGN' ));
ENDSEC;

DATA;
#1 = ORIENTED_EDGE ( 'NONE', *, *, #328, .F. ) ;
#2 = CARTESIAN_POINT ( 'NONE',  ( 60.00000000000000000, 1.500000000000000000, 0.000000000000000000 ) ) ;
#3 = DIRECTION ( 'NONE',  ( 0.000000000000000000, 0.000000000000000000, 1.000000000000000000 ) ) ;
#4 = EDGE_LOOP ( 'NONE', ( #230, #320, #68, #266 ) ) ;
#5 = AXIS2_PLACEMENT_3D ( 'NONE', #216, #160, #26 ) ;
#6 = EDGE_CURVE ( 'NONE', #267, #87, #179, .T. ) ;
#7 = CYLINDRICAL_SURFACE ( 'NONE', #111, 2.500000000000002220 ) ;
#8 = APPLICATION_CONTEXT ( 'automotive_design' ) ;
#9 = DIRECTION ( 'NONE',  ( 0.000000000000000000, 0.000000000000000000, 1.000000000000000000 ) ) ;
#10 = PRODUCT_DEFINITION_FORMATION_WITH_SPECIFIED_SOURCE ( 'ANY', '', #88, .NOT_KNOWN. ) ;
#11 = ORIENTED_EDGE ( 'NONE', *, *, #28, .F. ) ;
#12 = EDGE_CURVE ( 'NONE', #84, #82, #154, .T. ) ;
#13 = LINE ( 'NONE', #317, #112 ) ;
#14 = FILL_AREA_STYLE_COLOUR ( '', #59 ) ;
#15 = VECTOR ( 'NONE', #304, 1000.000000000000000 ) ;
#16 = AXIS2_PLACEMENT_3D ( 'NONE', #250, #293, #122 ) ;
#17 = DIRECTION ( 'NONE',  ( 1.000000000000000000, -0.000000000000000000, 0.000000000000000000 ) ) ;
#18 =( NAMED_UNIT ( * ) SI_UNIT ( $, .STERADIAN. ) SOLID_ANGLE_UNIT ( ) );
#19 = EDGE_LOOP ( 'NONE', ( #220, #42 ) ) ;
#20 = PRODUCT_CONTEXT ( 'NONE', #8, 'mechanical' ) ;
#21 = EDGE_LOOP ( 'NONE', ( #148, #77 ) ) ;
#22 =( NAMED_UNIT ( * ) SI_UNIT ( $, .STERADIAN. ) SOLID_ANGLE_UNIT ( ) );
#23 = VERTEX_POINT ( 'NONE', #131 ) ;
#24 = EDGE_CURVE ( 'NONE', #57, #23, #150, .T. ) ;
#25 = DIRECTION ( 'NONE',  ( 0.000000000000000000, -1.000000000000000000, 0.000000000000000000 ) ) ;
#26 = DIRECTION ( 'NONE',  ( 0.000000000000000000, 0.000000000000000000, 1.000000000000000000 ) ) ;
#27 = DIRECTION ( 'NONE',  ( -0.000000000000000000, -1.000000000000000000, -0.000000000000000000 ) ) ;
#28 = EDGE_CURVE ( 'NONE', #57, #142, #327, .T. ) ;
#29 = ORIENTED_EDGE ( 'NONE', *, *, #192, .T. ) ;
#30 = FACE_BOUND ( 'NONE', #21, .T. ) ;
#31 = CARTESIAN_POINT ( 'NONE',  ( 60.00000000000000711, 1.500000000000000000, -20.00000000000000000 ) ) ;
#32 = ORIENTED_EDGE ( 'NONE', *, *, #12, .T. ) ;
#33 = EDGE_CURVE ( 'NONE', #84, #247, #176, .T. ) ;
#34 = ORIENTED_EDGE ( 'NONE', *, *, #96, .T. ) ;
#35 = VECTOR ( 'NONE', #275, 1000.000000000000000 ) ;
#36 = ORIENTED_EDGE ( 'NONE', *, *, #96, .F. ) ;
#37 = ORIENTED_EDGE ( 'NONE', *, *, #224, .T. ) ;
#38 = LINE ( 'NONE', #41, #295 ) ;
#39 = AXIS2_PLACEMENT_3D ( 'NONE', #156, #257, #73 ) ;
#40 = CARTESIAN_POINT ( 'NONE',  ( 9.999999999999998224, 1.500000000000000000, -9.999999999999998224 ) ) ;
#41 = CARTESIAN_POINT ( 'NONE',  ( 0.000000000000000000, -1.500000000000000000, -20.00000000000000000 ) ) ;
#42 = ORIENTED_EDGE ( 'NONE', *, *, #115, .F. ) ;
#43 = DIRECTION ( 'NONE',  ( 0.000000000000000000, 1.000000000000000000, 0.000000000000000000 ) ) ;
#44 = ORIENTED_EDGE ( 'NONE', *, *, #248, .T. ) ;
#45 = ORIENTED_EDGE ( 'NONE', *, *, #69, .F. ) ;
#46 = CARTESIAN_POINT ( 'NONE',  ( 60.00000000000000000, 1.500000000000000000, 0.000000000000000000 ) ) ;
#47 = DIRECTION ( 'NONE',  ( 0.000000000000000000, -1.000000000000000000, 0.000000000000000000 ) ) ;
#48 = CARTESIAN_POINT ( 'NONE',  ( 9.999999999999998224, -1.500000000000000000, -12.49999999999999822 ) ) ;
#49 = FACE_OUTER_BOUND ( 'NONE', #163, .T. ) ;
#50 = PLANE ( 'NONE',  #39 ) ;
#51 = EDGE_LOOP ( 'NONE', ( #195, #324, #32, #168 ) ) ;
#52 = DIRECTION ( 'NONE',  ( 0.000000000000000000, -0.000000000000000000, -1.000000000000000000 ) ) ;
#53 = PLANE ( 'NONE',  #315 ) ;
#54 = ADVANCED_FACE ( 'NONE', ( #49 ), #53, .F. ) ;
#55 = ORIENTED_EDGE ( 'NONE', *, *, #198, .T. ) ;
#56 = CARTESIAN_POINT ( 'NONE',  ( 9.999999999999998224, -1.500000000000000000, -7.499999999999998224 ) ) ;
#57 = VERTEX_POINT ( 'NONE', #31 ) ;
#58 = CIRCLE ( 'NONE', #79, 2.500000000000000444 ) ;
#59 = COLOUR_RGB ( '',0.8666666666666666963, 0.9098039215686274384, 1.000000000000000000 ) ;
#60 = VECTOR ( 'NONE', #209, 1000.000000000000000 ) ;
#61 = CYLINDRICAL_SURFACE ( 'NONE', #316, 2.500000000000000444 ) ;
#62 = DIRECTION ( 'NONE',  ( 0.000000000000000000, 1.000000000000000000, -0.000000000000000000 ) ) ;
#63 = LINE ( 'NONE', #94, #105 ) ;
#64 = SURFACE_STYLE_FILL_AREA ( #173 ) ;
#65 = ORIENTED_EDGE ( 'NONE', *, *, #181, .F. ) ;
#66 = AXIS2_PLACEMENT_3D ( 'NONE', #307, #234, #162 ) ;
#67 = CARTESIAN_POINT ( 'NONE',  ( 50.00000000000000000, 1.500000000000000000, -7.499999999999998224 ) ) ;
#68 = ORIENTED_EDGE ( 'NONE', *, *, #205, .F. ) ;
#69 = EDGE_CURVE ( 'NONE', #182, #121, #331, .T. ) ;
#70 = CYLINDRICAL_SURFACE ( 'NONE', #233, 2.500000000000002220 ) ;
#71 = ORIENTED_EDGE ( 'NONE', *, *, #305, .F. ) ;
#72 = ORIENTED_EDGE ( 'NONE', *, *, #181, .T. ) ;
#73 = DIRECTION ( 'NONE',  ( -3.469446951953613696E-16, 0.000000000000000000, 1.000000000000000000 ) ) ;
#74 = ORIENTED_EDGE ( 'NONE', *, *, #99, .T. ) ;
#75 = FACE_OUTER_BOUND ( 'NONE', #184, .T. ) ;
#76 = DIRECTION ( 'NONE',  ( 1.000000000000000000, 0.000000000000000000, 0.000000000000000000 ) ) ;
#77 = ORIENTED_EDGE ( 'NONE', *, *, #81, .T. ) ;
#78 = DIRECTION ( 'NONE',  ( 0.000000000000000000, 1.000000000000000000, -0.000000000000000000 ) ) ;
#79 = AXIS2_PLACEMENT_3D ( 'NONE', #235, #259, #113 ) ;
#80 = FACE_BOUND ( 'NONE', #251, .T. ) ;
#81 = EDGE_CURVE ( 'NONE', #177, #82, #239, .T. ) ;
#82 = VERTEX_POINT ( 'NONE', #265 ) ;
#83 = CARTESIAN_POINT ( 'NONE',  ( 60.00000000000000711, -1.500000000000000000, -20.00000000000000000 ) ) ;
#84 = VERTEX_POINT ( 'NONE', #102 ) ;
#85 = VECTOR ( 'NONE', #258, 1000.000000000000000 ) ;
#86 =( GEOMETRIC_REPRESENTATION_CONTEXT ( 3 ) GLOBAL_UNCERTAINTY_ASSIGNED_CONTEXT ( ( #289 ) ) GLOBAL_UNIT_ASSIGNED_CONTEXT ( ( #180, #280, #22 ) ) REPRESENTATION_CONTEXT ( 'NONE', 'WORKASPACE' ) );
#87 = VERTEX_POINT ( 'NONE', #302 ) ;
#88 = PRODUCT ( 'B512 \X2\0410043b044e043c0438043d0438043504320430044f\X0\ \X2\0442043e04400446043504320430044f\X0\ \X2\043704300433043b04430448043a0430\X0\ 20\X2\0445\X0\60 (\X2\044704350440043d0430044f\X0\)', 'B512 \X2\0410043b044e043c0438043d0438043504320430044f\X0\ \X2\0442043e04400446043504320430044f\X0\ \X2\043704300433043b04430448043a0430\X0\ 20\X2\0445\X0\60 (\X2\044704350440043d0430044f\X0\)', '', ( #20 ) ) ;
#89 =( LENGTH_UNIT ( ) NAMED_UNIT ( * ) SI_UNIT ( .MILLI., .METRE. ) );
#90 = ORIENTED_EDGE ( 'NONE', *, *, #253, .F. ) ;
#91 = VECTOR ( 'NONE', #145, 1000.000000000000000 ) ;
#92 = FACE_OUTER_BOUND ( 'NONE', #330, .T. ) ;
#93 = ORIENTED_EDGE ( 'NONE', *, *, #248, .F. ) ;
#94 = CARTESIAN_POINT ( 'NONE',  ( 0.000000000000000000, 1.500000000000000000, -20.00000000000000000 ) ) ;
#95 = LINE ( 'NONE', #201, #35 ) ;
#96 = EDGE_CURVE ( 'NONE', #318, #130, #185, .T. ) ;
#97 = CARTESIAN_POINT ( 'NONE',  ( 60.00000000000000000, -1.500000000000000000, 0.000000000000000000 ) ) ;
#98 = CARTESIAN_POINT ( 'NONE',  ( 60.00000000000000711, 1.500000000000000000, -20.00000000000000000 ) ) ;
#99 = EDGE_CURVE ( 'NONE', #152, #276, #334, .T. ) ;
#100 = CARTESIAN_POINT ( 'NONE',  ( 50.00000000000000000, -1.500000000000000000, -10.00000000000000000 ) ) ;
#101 = EDGE_LOOP ( 'NONE', ( #126, #218, #1, #285 ) ) ;
#102 = CARTESIAN_POINT ( 'NONE',  ( 50.00000000000000000, 1.500000000000000000, -12.50000000000000178 ) ) ;
#103 = APPLICATION_PROTOCOL_DEFINITION ( 'draft international standard', 'automotive_design', 1998, #202 ) ;
#104 = DIRECTION ( 'NONE',  ( -0.000000000000000000, -0.000000000000000000, 1.000000000000000000 ) ) ;
#105 = VECTOR ( 'NONE', #120, 1000.000000000000000 ) ;
#106 = FACE_OUTER_BOUND ( 'NONE', #4, .T. ) ;
#107 = DIRECTION ( 'NONE',  ( -0.000000000000000000, -1.000000000000000000, -0.000000000000000000 ) ) ;
#108 = LINE ( 'NONE', #208, #15 ) ;
#109 = ORIENTED_EDGE ( 'NONE', *, *, #205, .T. ) ;
#110 = DIRECTION ( 'NONE',  ( 0.000000000000000000, 0.000000000000000000, -1.000000000000000000 ) ) ;
#111 = AXIS2_PLACEMENT_3D ( 'NONE', #169, #268, #260 ) ;
#112 = VECTOR ( 'NONE', #147, 1000.000000000000000 ) ;
#113 = DIRECTION ( 'NONE',  ( 0.000000000000000000, 0.000000000000000000, 1.000000000000000000 ) ) ;
#114 = DIRECTION ( 'NONE',  ( 0.000000000000000000, 0.000000000000000000, -1.000000000000000000 ) ) ;
#115 = EDGE_CURVE ( 'NONE', #247, #84, #116, .T. ) ;
#116 = CIRCLE ( 'NONE', #325, 2.500000000000002220 ) ;
#117 = AXIS2_PLACEMENT_3D ( 'NONE', #40, #43, #271 ) ;
#118 = CARTESIAN_POINT ( 'NONE',  ( 50.00000000000000000, 1.500000000000000000, -10.00000000000000000 ) ) ;
#119 = ADVANCED_FACE ( 'NONE', ( #189, #186, #263 ), #303, .F. ) ;
#120 = DIRECTION ( 'NONE',  ( -0.000000000000000000, -1.000000000000000000, -0.000000000000000000 ) ) ;
#121 = VERTEX_POINT ( 'NONE', #48 ) ;
#122 = DIRECTION ( 'NONE',  ( 0.000000000000000000, 0.000000000000000000, -1.000000000000000000 ) ) ;
#123 = ORIENTED_EDGE ( 'NONE', *, *, #309, .T. ) ;
#124 = DIRECTION ( 'NONE',  ( 0.000000000000000000, 0.000000000000000000, -1.000000000000000000 ) ) ;
#125 = FACE_OUTER_BOUND ( 'NONE', #322, .T. ) ;
#126 = ORIENTED_EDGE ( 'NONE', *, *, #33, .T. ) ;
#127 = AXIS2_PLACEMENT_3D ( 'NONE', #261, #25, #281 ) ;
#128 = CARTESIAN_POINT ( 'NONE',  ( 0.000000000000000000, 1.500000000000000000, -20.00000000000000000 ) ) ;
#129 = EDGE_CURVE ( 'NONE', #130, #121, #171, .T. ) ;
#130 = VERTEX_POINT ( 'NONE', #56 ) ;
#131 = CARTESIAN_POINT ( 'NONE',  ( 0.000000000000000000, 1.500000000000000000, -20.00000000000000000 ) ) ;
#132 = DIRECTION ( 'NONE',  ( -0.000000000000000000, -1.000000000000000000, -0.000000000000000000 ) ) ;
#133 = VECTOR ( 'NONE', #161, 1000.000000000000000 ) ;
#134 = PLANE ( 'NONE',  #255 ) ;
#135 = CARTESIAN_POINT ( 'NONE',  ( 50.00000000000000000, 1.500000000000000000, -10.00000000000000000 ) ) ;
#136 = ADVANCED_FACE ( 'NONE', ( #106 ), #213, .F. ) ;
#137 = CARTESIAN_POINT ( 'NONE',  ( 9.999999999999998224, 1.500000000000000000, -12.49999999999999822 ) ) ;
#138 = CARTESIAN_POINT ( 'NONE',  ( 9.999999999999998224, -1.500000000000000000, -9.999999999999998224 ) ) ;
#139 = EDGE_CURVE ( 'NONE', #121, #130, #58, .T. ) ;
#140 = ORIENTED_EDGE ( 'NONE', *, *, #24, .T. ) ;
#141 = DIRECTION ( 'NONE',  ( 0.000000000000000000, 0.000000000000000000, -1.000000000000000000 ) ) ;
#142 = VERTEX_POINT ( 'NONE', #83 ) ;
#143 = CYLINDRICAL_SURFACE ( 'NONE', #16, 2.500000000000000444 ) ;
#144 = ADVANCED_FACE ( 'NONE', ( #80, #191, #30 ), #134, .T. ) ;
#145 = DIRECTION ( 'NONE',  ( 3.469446951953614189E-16, 0.000000000000000000, -1.000000000000000000 ) ) ;
#146 = ORIENTED_EDGE ( 'NONE', *, *, #69, .T. ) ;
#147 = DIRECTION ( 'NONE',  ( -0.000000000000000000, -1.000000000000000000, -0.000000000000000000 ) ) ;
#148 = ORIENTED_EDGE ( 'NONE', *, *, #328, .T. ) ;
#149 = CARTESIAN_POINT ( 'NONE',  ( 9.999999999999998224, 1.500000000000000000, -9.999999999999998224 ) ) ;
#150 = LINE ( 'NONE', #128, #300 ) ;
#151 = CIRCLE ( 'NONE', #5, 2.500000000000000444 ) ;
#152 = VERTEX_POINT ( 'NONE', #240 ) ;
#153 = LINE ( 'NONE', #203, #60 ) ;
#154 = LINE ( 'NONE', #278, #85 ) ;
#155 = DIRECTION ( 'NONE',  ( 1.000000000000000000, 0.000000000000000000, -0.000000000000000000 ) ) ;
#156 = CARTESIAN_POINT ( 'NONE',  ( 60.00000000000000000, 1.500000000000000000, 0.000000000000000000 ) ) ;
#157 = CARTESIAN_POINT ( 'NONE',  ( 9.999999999999998224, 1.500000000000000000, -7.499999999999998224 ) ) ;
#158 = ADVANCED_FACE ( 'NONE', ( #206 ), #7, .F. ) ;
#159 = CIRCLE ( 'NONE', #166, 2.500000000000002220 ) ;
#160 = DIRECTION ( 'NONE',  ( 0.000000000000000000, 1.000000000000000000, 0.000000000000000000 ) ) ;
#161 = DIRECTION ( 'NONE',  ( -0.000000000000000000, -1.000000000000000000, -0.000000000000000000 ) ) ;
#162 = DIRECTION ( 'NONE',  ( 0.000000000000000000, 0.000000000000000000, -1.000000000000000000 ) ) ;
#163 = EDGE_LOOP ( 'NONE', ( #214, #270, #297, #187 ) ) ;
#164 = CARTESIAN_POINT ( 'NONE',  ( 0.000000000000000000, 1.500000000000000000, -20.00000000000000000 ) ) ;
#165 = AXIS2_PLACEMENT_3D ( 'NONE', #135, #62, #299 ) ;
#166 = AXIS2_PLACEMENT_3D ( 'NONE', #100, #326, #227 ) ;
#167 = UNCERTAINTY_MEASURE_WITH_UNIT (LENGTH_MEASURE( 1.000000000000000082E-05 ), #89, 'distance_accuracy_value', 'NONE');
#168 = ORIENTED_EDGE ( 'NONE', *, *, #81, .F. ) ;
#169 = CARTESIAN_POINT ( 'NONE',  ( 50.00000000000000000, 1.500000000000000000, -10.00000000000000000 ) ) ;
#170 = EDGE_LOOP ( 'NONE', ( #44, #109, #29, #140 ) ) ;
#171 = CIRCLE ( 'NONE', #225, 2.500000000000000444 ) ;
#172 = AXIS2_PLACEMENT_3D ( 'NONE', #210, #114, #246 ) ;
#173 = FILL_AREA_STYLE ('',( #14 ) ) ;
#174 = FACE_OUTER_BOUND ( 'NONE', #272, .T. ) ;
#175 = EDGE_CURVE ( 'NONE', #247, #177, #108, .T. ) ;
#176 = CIRCLE ( 'NONE', #165, 2.500000000000002220 ) ;
#177 = VERTEX_POINT ( 'NONE', #188 ) ;
#178 = PRESENTATION_STYLE_ASSIGNMENT (( #219 ) ) ;
#179 = LINE ( 'NONE', #333, #232 ) ;
#180 =( LENGTH_UNIT ( ) NAMED_UNIT ( * ) SI_UNIT ( .MILLI., .METRE. ) );
#181 = EDGE_CURVE ( 'NONE', #318, #182, #151, .T. ) ;
#182 = VERTEX_POINT ( 'NONE', #137 ) ;
#183 = AXIS2_PLACEMENT_3D ( 'NONE', #236, #229, #76 ) ;
#184 = EDGE_LOOP ( 'NONE', ( #123, #11, #193, #74 ) ) ;
#185 = LINE ( 'NONE', #157, #243 ) ;
#186 = FACE_BOUND ( 'NONE', #245, .T. ) ;
#187 = ORIENTED_EDGE ( 'NONE', *, *, #28, .T. ) ;
#188 = CARTESIAN_POINT ( 'NONE',  ( 50.00000000000000000, -1.500000000000000000, -7.499999999999998224 ) ) ;
#189 = FACE_OUTER_BOUND ( 'NONE', #170, .T. ) ;
#190 =( GEOMETRIC_REPRESENTATION_CONTEXT ( 3 ) GLOBAL_UNCERTAINTY_ASSIGNED_CONTEXT ( ( #167 ) ) GLOBAL_UNIT_ASSIGNED_CONTEXT ( ( #89, #291, #18 ) ) REPRESENTATION_CONTEXT ( 'NONE', 'WORKASPACE' ) );
#191 = FACE_OUTER_BOUND ( 'NONE', #290, .T. ) ;
#192 = EDGE_CURVE ( 'NONE', #152, #57, #237, .T. ) ;
#193 = ORIENTED_EDGE ( 'NONE', *, *, #192, .F. ) ;
#194 = CARTESIAN_POINT ( 'NONE',  ( 0.000000000000000000, 1.500000000000000000, 0.000000000000000000 ) ) ;
#195 = ORIENTED_EDGE ( 'NONE', *, *, #175, .F. ) ;
#196 = STYLED_ITEM ( 'NONE', ( #178 ), #231 ) ;
#197 = DIRECTION ( 'NONE',  ( 1.000000000000000000, 0.000000000000000000, 0.000000000000000000 ) ) ;
#198 = EDGE_CURVE ( 'NONE', #182, #318, #279, .T. ) ;
#199 = LINE ( 'NONE', #194, #301 ) ;
#200 = ORIENTED_EDGE ( 'NONE', *, *, #6, .T. ) ;
#201 = CARTESIAN_POINT ( 'NONE',  ( 0.000000000000000000, -1.500000000000000000, 0.000000000000000000 ) ) ;
#202 = APPLICATION_CONTEXT ( 'automotive_design' ) ;
#203 = CARTESIAN_POINT ( 'NONE',  ( 60.00000000000000000, -1.500000000000000000, 0.000000000000000000 ) ) ;
#204 = MECHANICAL_DESIGN_GEOMETRIC_PRESENTATION_REPRESENTATION (  '', ( #196 ), #190 ) ;
#205 = EDGE_CURVE ( 'NONE', #254, #152, #199, .T. ) ;
#206 = FACE_OUTER_BOUND ( 'NONE', #51, .T. ) ;
#207 = CARTESIAN_POINT ( 'NONE',  ( 50.00000000000000000, 1.500000000000000000, -10.00000000000000000 ) ) ;
#208 = CARTESIAN_POINT ( 'NONE',  ( 50.00000000000000000, 1.500000000000000000, -7.499999999999998224 ) ) ;
#209 = DIRECTION ( 'NONE',  ( 3.469446951953614189E-16, 0.000000000000000000, -1.000000000000000000 ) ) ;
#210 = CARTESIAN_POINT ( 'NONE',  ( 0.000000000000000000, 1.500000000000000000, 0.000000000000000000 ) ) ;
#211 = VECTOR ( 'NONE', #107, 1000.000000000000000 ) ;
#212 = CARTESIAN_POINT ( 'NONE',  ( 9.999999999999998224, 1.500000000000000000, -12.49999999999999822 ) ) ;
#213 = PLANE ( 'NONE',  #172 ) ;
#214 = ORIENTED_EDGE ( 'NONE', *, *, #253, .T. ) ;
#215 = VECTOR ( 'NONE', #27, 1000.000000000000000 ) ;
#216 = CARTESIAN_POINT ( 'NONE',  ( 9.999999999999998224, 1.500000000000000000, -9.999999999999998224 ) ) ;
#217 = DIRECTION ( 'NONE',  ( -0.000000000000000000, -1.000000000000000000, -0.000000000000000000 ) ) ;
#218 = ORIENTED_EDGE ( 'NONE', *, *, #175, .T. ) ;
#219 = SURFACE_STYLE_USAGE ( .BOTH. , #252 ) ;
#220 = ORIENTED_EDGE ( 'NONE', *, *, #33, .F. ) ;
#221 = CLOSED_SHELL ( 'NONE', ( #282, #262, #119, #144, #286, #136, #335, #54, #256, #158 ) ) ;
#222 = LINE ( 'NONE', #277, #244 ) ;
#223 = DIRECTION ( 'NONE',  ( 0.000000000000000000, 0.000000000000000000, -1.000000000000000000 ) ) ;
#224 = EDGE_CURVE ( 'NONE', #23, #267, #63, .T. ) ;
#225 = AXIS2_PLACEMENT_3D ( 'NONE', #138, #238, #9 ) ;
#226 = DIRECTION ( 'NONE',  ( -1.000000000000000000, -0.000000000000000000, -0.000000000000000000 ) ) ;
#227 = DIRECTION ( 'NONE',  ( 0.000000000000000000, 0.000000000000000000, -1.000000000000000000 ) ) ;
#228 = PRODUCT_DEFINITION ( 'UNKNOWN', '', #10, #292 ) ;
#229 = DIRECTION ( 'NONE',  ( 0.000000000000000000, 0.000000000000000000, 1.000000000000000000 ) ) ;
#230 = ORIENTED_EDGE ( 'NONE', *, *, #305, .T. ) ;
#231 = MANIFOLD_SOLID_BREP ( '\X2\0411043e0431044b0448043a0430\X0\-\X2\0412044b0442044f043d04430442044c\X0\1', #221 ) ;
#232 = VECTOR ( 'NONE', #104, 1000.000000000000000 ) ;
#233 = AXIS2_PLACEMENT_3D ( 'NONE', #118, #217, #141 ) ;
#234 = DIRECTION ( 'NONE',  ( 0.000000000000000000, 1.000000000000000000, -0.000000000000000000 ) ) ;
#235 = CARTESIAN_POINT ( 'NONE',  ( 9.999999999999998224, -1.500000000000000000, -9.999999999999998224 ) ) ;
#236 = CARTESIAN_POINT ( 'NONE',  ( 0.000000000000000000, 0.000000000000000000, 0.000000000000000000 ) ) ;
#237 = LINE ( 'NONE', #2, #91 ) ;
#238 = DIRECTION ( 'NONE',  ( 0.000000000000000000, 1.000000000000000000, 0.000000000000000000 ) ) ;
#239 = CIRCLE ( 'NONE', #66, 2.500000000000002220 ) ;
#240 = CARTESIAN_POINT ( 'NONE',  ( 60.00000000000000000, 1.500000000000000000, 0.000000000000000000 ) ) ;
#241 = ORIENTED_EDGE ( 'NONE', *, *, #139, .T. ) ;
#242 = ADVANCED_BREP_SHAPE_REPRESENTATION ( 'B512 \X2\0410043b044e043c0438043d0438043504320430044f\X0\ \X2\0442043e04400446043504320430044f\X0\ \X2\043704300433043b04430448043a0430\X0\ 20\X2\0445\X0\60 (\X2\044704350440043d0430044f\X0\)', ( #231, #183 ), #86 ) ;
#243 = VECTOR ( 'NONE', #132, 1000.000000000000000 ) ;
#244 = VECTOR ( 'NONE', #313, 1000.000000000000000 ) ;
#245 = EDGE_LOOP ( 'NONE', ( #312, #65 ) ) ;
#246 = DIRECTION ( 'NONE',  ( -1.000000000000000000, 0.000000000000000000, -0.000000000000000000 ) ) ;
#247 = VERTEX_POINT ( 'NONE', #67 ) ;
#248 = EDGE_CURVE ( 'NONE', #23, #254, #222, .T. ) ;
#249 = CARTESIAN_POINT ( 'NONE',  ( 0.000000000000000000, 1.500000000000000000, 0.000000000000000000 ) ) ;
#250 = CARTESIAN_POINT ( 'NONE',  ( 9.999999999999998224, 1.500000000000000000, -9.999999999999998224 ) ) ;
#251 = EDGE_LOOP ( 'NONE', ( #241, #288 ) ) ;
#252 = SURFACE_SIDE_STYLE ('',( #64 ) ) ;
#253 = EDGE_CURVE ( 'NONE', #142, #267, #38, .T. ) ;
#254 = VERTEX_POINT ( 'NONE', #321 ) ;
#255 = AXIS2_PLACEMENT_3D ( 'NONE', #284, #47, #52 ) ;
#256 = ADVANCED_FACE ( 'NONE', ( #125 ), #61, .F. ) ;
#257 = DIRECTION ( 'NONE',  ( -1.000000000000000000, 0.000000000000000000, -3.469446951953613696E-16 ) ) ;
#258 = DIRECTION ( 'NONE',  ( -0.000000000000000000, -1.000000000000000000, -0.000000000000000000 ) ) ;
#259 = DIRECTION ( 'NONE',  ( 0.000000000000000000, 1.000000000000000000, 0.000000000000000000 ) ) ;
#260 = DIRECTION ( 'NONE',  ( 0.000000000000000000, 0.000000000000000000, -1.000000000000000000 ) ) ;
#261 = CARTESIAN_POINT ( 'NONE',  ( 0.000000000000000000, 1.500000000000000000, 0.000000000000000000 ) ) ;
#262 = ADVANCED_FACE ( 'NONE', ( #174 ), #143, .F. ) ;
#263 = FACE_BOUND ( 'NONE', #19, .T. ) ;
#264 = ORIENTED_EDGE ( 'NONE', *, *, #309, .F. ) ;
#265 = CARTESIAN_POINT ( 'NONE',  ( 50.00000000000000000, -1.500000000000000000, -12.50000000000000178 ) ) ;
#266 = ORIENTED_EDGE ( 'NONE', *, *, #274, .T. ) ;
#267 = VERTEX_POINT ( 'NONE', #269 ) ;
#268 = DIRECTION ( 'NONE',  ( -0.000000000000000000, -1.000000000000000000, -0.000000000000000000 ) ) ;
#269 = CARTESIAN_POINT ( 'NONE',  ( 0.000000000000000000, -1.500000000000000000, -20.00000000000000000 ) ) ;
#270 = ORIENTED_EDGE ( 'NONE', *, *, #224, .F. ) ;
#271 = DIRECTION ( 'NONE',  ( 0.000000000000000000, 0.000000000000000000, 1.000000000000000000 ) ) ;
#272 = EDGE_LOOP ( 'NONE', ( #55, #34, #308, #45 ) ) ;
#273 = PRESENTATION_LAYER_ASSIGNMENT (  '', '', ( #196 ) ) ;
#274 = EDGE_CURVE ( 'NONE', #254, #87, #13, .T. ) ;
#275 = DIRECTION ( 'NONE',  ( 1.000000000000000000, 0.000000000000000000, 0.000000000000000000 ) ) ;
#276 = VERTEX_POINT ( 'NONE', #97 ) ;
#277 = CARTESIAN_POINT ( 'NONE',  ( 0.000000000000000000, 1.500000000000000000, 0.000000000000000000 ) ) ;
#278 = CARTESIAN_POINT ( 'NONE',  ( 50.00000000000000000, 1.500000000000000000, -12.50000000000000178 ) ) ;
#279 = CIRCLE ( 'NONE', #117, 2.500000000000000444 ) ;
#280 =( NAMED_UNIT ( * ) PLANE_ANGLE_UNIT ( ) SI_UNIT ( $, .RADIAN. ) );
#281 = DIRECTION ( 'NONE',  ( 0.000000000000000000, -0.000000000000000000, -1.000000000000000000 ) ) ;
#282 = ADVANCED_FACE ( 'NONE', ( #294 ), #70, .F. ) ;
#283 = SHAPE_DEFINITION_REPRESENTATION ( #311, #242 ) ;
#284 = CARTESIAN_POINT ( 'NONE',  ( 0.000000000000000000, -1.500000000000000000, 0.000000000000000000 ) ) ;
#285 = ORIENTED_EDGE ( 'NONE', *, *, #12, .F. ) ;
#286 = ADVANCED_FACE ( 'NONE', ( #92 ), #319, .F. ) ;
#287 = ORIENTED_EDGE ( 'NONE', *, *, #129, .F. ) ;
#288 = ORIENTED_EDGE ( 'NONE', *, *, #129, .T. ) ;
#289 = UNCERTAINTY_MEASURE_WITH_UNIT (LENGTH_MEASURE( 1.000000000000000082E-05 ), #180, 'distance_accuracy_value', 'NONE');
#290 = EDGE_LOOP ( 'NONE', ( #314, #90, #264, #71 ) ) ;
#291 =( NAMED_UNIT ( * ) PLANE_ANGLE_UNIT ( ) SI_UNIT ( $, .RADIAN. ) );
#292 = PRODUCT_DEFINITION_CONTEXT ( 'detailed design', #202, 'design' ) ;
#293 = DIRECTION ( 'NONE',  ( -0.000000000000000000, -1.000000000000000000, -0.000000000000000000 ) ) ;
#294 = FACE_OUTER_BOUND ( 'NONE', #101, .T. ) ;
#295 = VECTOR ( 'NONE', #296, 1000.000000000000000 ) ;
#296 = DIRECTION ( 'NONE',  ( -1.000000000000000000, -0.000000000000000000, -0.000000000000000000 ) ) ;
#297 = ORIENTED_EDGE ( 'NONE', *, *, #24, .F. ) ;
#298 = PRODUCT_RELATED_PRODUCT_CATEGORY ( 'part', '', ( #88 ) ) ;
#299 = DIRECTION ( 'NONE',  ( 0.000000000000000000, 0.000000000000000000, -1.000000000000000000 ) ) ;
#300 = VECTOR ( 'NONE', #226, 1000.000000000000000 ) ;
#301 = VECTOR ( 'NONE', #197, 1000.000000000000000 ) ;
#302 = CARTESIAN_POINT ( 'NONE',  ( 0.000000000000000000, -1.500000000000000000, 0.000000000000000000 ) ) ;
#303 = PLANE ( 'NONE',  #127 ) ;
#304 = DIRECTION ( 'NONE',  ( -0.000000000000000000, -1.000000000000000000, -0.000000000000000000 ) ) ;
#305 = EDGE_CURVE ( 'NONE', #87, #276, #95, .T. ) ;
#306 = AXIS2_PLACEMENT_3D ( 'NONE', #249, #17, #124 ) ;
#307 = CARTESIAN_POINT ( 'NONE',  ( 50.00000000000000000, -1.500000000000000000, -10.00000000000000000 ) ) ;
#308 = ORIENTED_EDGE ( 'NONE', *, *, #139, .F. ) ;
#309 = EDGE_CURVE ( 'NONE', #276, #142, #153, .T. ) ;
#310 = ORIENTED_EDGE ( 'NONE', *, *, #274, .F. ) ;
#311 = PRODUCT_DEFINITION_SHAPE ( 'NONE', 'NONE',  #228 ) ;
#312 = ORIENTED_EDGE ( 'NONE', *, *, #198, .F. ) ;
#313 = DIRECTION ( 'NONE',  ( -0.000000000000000000, -0.000000000000000000, 1.000000000000000000 ) ) ;
#314 = ORIENTED_EDGE ( 'NONE', *, *, #6, .F. ) ;
#315 = AXIS2_PLACEMENT_3D ( 'NONE', #164, #3, #155 ) ;
#316 = AXIS2_PLACEMENT_3D ( 'NONE', #149, #323, #223 ) ;
#317 = CARTESIAN_POINT ( 'NONE',  ( 0.000000000000000000, 1.500000000000000000, 0.000000000000000000 ) ) ;
#318 = VERTEX_POINT ( 'NONE', #329 ) ;
#319 = PLANE ( 'NONE',  #306 ) ;
#320 = ORIENTED_EDGE ( 'NONE', *, *, #99, .F. ) ;
#321 = CARTESIAN_POINT ( 'NONE',  ( 0.000000000000000000, 1.500000000000000000, 0.000000000000000000 ) ) ;
#322 = EDGE_LOOP ( 'NONE', ( #36, #72, #146, #287 ) ) ;
#323 = DIRECTION ( 'NONE',  ( -0.000000000000000000, -1.000000000000000000, -0.000000000000000000 ) ) ;
#324 = ORIENTED_EDGE ( 'NONE', *, *, #115, .T. ) ;
#325 = AXIS2_PLACEMENT_3D ( 'NONE', #207, #78, #110 ) ;
#326 = DIRECTION ( 'NONE',  ( 0.000000000000000000, 1.000000000000000000, -0.000000000000000000 ) ) ;
#327 = LINE ( 'NONE', #98, #133 ) ;
#328 = EDGE_CURVE ( 'NONE', #82, #177, #159, .T. ) ;
#329 = CARTESIAN_POINT ( 'NONE',  ( 9.999999999999998224, 1.500000000000000000, -7.499999999999998224 ) ) ;
#330 = EDGE_LOOP ( 'NONE', ( #200, #310, #93, #37 ) ) ;
#331 = LINE ( 'NONE', #212, #215 ) ;
#332 = APPLICATION_PROTOCOL_DEFINITION ( 'draft international standard', 'automotive_design', 1998, #8 ) ;
#333 = CARTESIAN_POINT ( 'NONE',  ( 0.000000000000000000, -1.500000000000000000, 0.000000000000000000 ) ) ;
#334 = LINE ( 'NONE', #46, #211 ) ;
#335 = ADVANCED_FACE ( 'NONE', ( #75 ), #50, .F. ) ;
ENDSEC;
END-ISO-10303-21;
