ISO-10303-21;
HEADER;
FILE_DESCRIPTION (( 'STEP AP214' ),
    '1' );
FILE_NAME ('A211 Âûñîêîòî÷íàÿ äèñòàíöèîííàÿ øàéáà 5 ìì.STEP',
    '2019-10-10T09:30:30',
    ( 'Windows User' ),
    ( '' ),
    'SwSTEP 2.0',
    'SolidWorks 2019',
    '' );
FILE_SCHEMA (( 'AUTOMOTIVE_DESIGN' ));
ENDSEC;

DATA;
#1 = DIRECTION ( 'NONE',  ( 0.0000000000000000000, 0.0000000000000000000, -1.000000000000000000 ) ) ;
#2 = EDGE_LOOP ( 'NONE', ( #153, #59 ) ) ;
#3 = CARTESIAN_POINT ( 'NONE',  ( -5.000000000000000000, 0.0000000000000000000, 0.0000000000000000000 ) ) ;
#4 = DIRECTION ( 'NONE',  ( -1.000000000000000000, 0.0000000000000000000, 0.0000000000000000000 ) ) ;
#5 = ORIENTED_EDGE ( 'NONE', *, *, #130, .T. ) ;
#6 = MECHANICAL_DESIGN_GEOMETRIC_PRESENTATION_REPRESENTATION (  '', ( #88 ), #163 ) ;
#7 = CARTESIAN_POINT ( 'NONE',  ( 0.0000000000000000000, 0.0000000000000000000, 0.0000000000000000000 ) ) ;
#8 = ORIENTED_EDGE ( 'NONE', *, *, #194, .F. ) ;
#9 = CARTESIAN_POINT ( 'NONE',  ( 0.0000000000000000000, 0.0000000000000000000, 0.0000000000000000000 ) ) ;
#10 = CIRCLE ( 'NONE', #154, 5.000000000000000000 ) ;
#11 = LINE ( 'NONE', #181, #147 ) ;
#12 = CYLINDRICAL_SURFACE ( 'NONE', #47, 2.600000000000000089 ) ;
#13 = FILL_AREA_STYLE_COLOUR ( '', #18 ) ;
#14 = VERTEX_POINT ( 'NONE', #74 ) ;
#15 = SURFACE_STYLE_USAGE ( .BOTH. , #31 ) ;
#16 =( LENGTH_UNIT ( ) NAMED_UNIT ( * ) SI_UNIT ( .MILLI., .METRE. ) );
#17 =( NAMED_UNIT ( * ) SI_UNIT ( $, .STERADIAN. ) SOLID_ANGLE_UNIT ( ) );
#18 = COLOUR_RGB ( '',0.7490196078431372584, 0.7490196078431372584, 0.7490196078431372584 ) ;
#19 = DIRECTION ( 'NONE',  ( 0.0000000000000000000, 0.0000000000000000000, 1.000000000000000000 ) ) ;
#20 = UNCERTAINTY_MEASURE_WITH_UNIT (LENGTH_MEASURE( 1.000000000000000082E-05 ), #85, 'distance_accuracy_value', 'NONE');
#21 = APPLICATION_PROTOCOL_DEFINITION ( 'draft international standard', 'automotive_design', 1998, #98 ) ;
#22 = VERTEX_POINT ( 'NONE', #125 ) ;
#23 = ADVANCED_FACE ( 'NONE', ( #139 ), #140, .T. ) ;
#24 = ORIENTED_EDGE ( 'NONE', *, *, #190, .T. ) ;
#25 = CARTESIAN_POINT ( 'NONE',  ( 0.0000000000000000000, 0.0000000000000000000, 1.000000000000000000 ) ) ;
#26 = ORIENTED_EDGE ( 'NONE', *, *, #190, .F. ) ;
#27 = AXIS2_PLACEMENT_3D ( 'NONE', #32, #97, #167 ) ;
#28 = DIRECTION ( 'NONE',  ( 0.0000000000000000000, 0.0000000000000000000, -1.000000000000000000 ) ) ;
#29 = DIRECTION ( 'NONE',  ( 0.0000000000000000000, 0.0000000000000000000, 1.000000000000000000 ) ) ;
#30 = CYLINDRICAL_SURFACE ( 'NONE', #160, 5.000000000000000000 ) ;
#31 = SURFACE_SIDE_STYLE ('',( #189 ) ) ;
#32 = CARTESIAN_POINT ( 'NONE',  ( 0.0000000000000000000, 0.0000000000000000000, 0.0000000000000000000 ) ) ;
#33 = EDGE_CURVE ( 'NONE', #111, #14, #39, .T. ) ;
#34 = COLOUR_RGB ( '',0.7490196078431372584, 0.7490196078431372584, 0.7490196078431372584 ) ;
#35 = DIRECTION ( 'NONE',  ( 0.0000000000000000000, 0.0000000000000000000, 1.000000000000000000 ) ) ;
#36 = DIRECTION ( 'NONE',  ( 0.0000000000000000000, 0.0000000000000000000, 1.000000000000000000 ) ) ;
#37 = ORIENTED_EDGE ( 'NONE', *, *, #146, .T. ) ;
#38 = DIRECTION ( 'NONE',  ( 0.0000000000000000000, 0.0000000000000000000, 1.000000000000000000 ) ) ;
#39 = CIRCLE ( 'NONE', #82, 5.000000000000000000 ) ;
#40 = DIRECTION ( 'NONE',  ( 0.0000000000000000000, 0.0000000000000000000, 1.000000000000000000 ) ) ;
#41 = PLANE ( 'NONE',  #83 ) ;
#42 = CARTESIAN_POINT ( 'NONE',  ( 2.600000000000000089, -3.184081677783118191E-16, 0.0000000000000000000 ) ) ;
#43 = VERTEX_POINT ( 'NONE', #138 ) ;
#44 = ORIENTED_EDGE ( 'NONE', *, *, #71, .F. ) ;
#45 = VERTEX_POINT ( 'NONE', #42 ) ;
#46 = PRODUCT_RELATED_PRODUCT_CATEGORY ( 'part', '', ( #174 ) ) ;
#47 = AXIS2_PLACEMENT_3D ( 'NONE', #93, #170, #171 ) ;
#48 = PRESENTATION_STYLE_ASSIGNMENT (( #157 ) ) ;
#49 = FACE_OUTER_BOUND ( 'NONE', #203, .T. ) ;
#50 = ORIENTED_EDGE ( 'NONE', *, *, #124, .F. ) ;
#51 = CARTESIAN_POINT ( 'NONE',  ( 0.0000000000000000000, 0.0000000000000000000, 1.000000000000000000 ) ) ;
#52 = DIRECTION ( 'NONE',  ( -1.000000000000000000, 0.0000000000000000000, 0.0000000000000000000 ) ) ;
#53 = DIRECTION ( 'NONE',  ( -1.000000000000000000, 0.0000000000000000000, 0.0000000000000000000 ) ) ;
#54 = DIRECTION ( 'NONE',  ( -1.000000000000000000, 0.0000000000000000000, 0.0000000000000000000 ) ) ;
#55 = DIRECTION ( 'NONE',  ( 0.0000000000000000000, 0.0000000000000000000, 1.000000000000000000 ) ) ;
#56 = DIRECTION ( 'NONE',  ( 0.0000000000000000000, 0.0000000000000000000, -1.000000000000000000 ) ) ;
#57 = EDGE_CURVE ( 'NONE', #22, #58, #11, .T. ) ;
#58 = VERTEX_POINT ( 'NONE', #105 ) ;
#59 = ORIENTED_EDGE ( 'NONE', *, *, #159, .T. ) ;
#60 = FILL_AREA_STYLE ('',( #13 ) ) ;
#61 = EDGE_CURVE ( 'NONE', #22, #45, #120, .T. ) ;
#62 =( NAMED_UNIT ( * ) PLANE_ANGLE_UNIT ( ) SI_UNIT ( $, .RADIAN. ) );
#63 = PRODUCT_DEFINITION_SHAPE ( 'NONE', 'NONE',  #102 ) ;
#64 = CARTESIAN_POINT ( 'NONE',  ( 5.000000000000000000, -6.123233995736766282E-16, 0.0000000000000000000 ) ) ;
#65 = CARTESIAN_POINT ( 'NONE',  ( 0.0000000000000000000, 0.0000000000000000000, 0.0000000000000000000 ) ) ;
#66 = FACE_BOUND ( 'NONE', #179, .T. ) ;
#67 = DIRECTION ( 'NONE',  ( -1.000000000000000000, 0.0000000000000000000, 0.0000000000000000000 ) ) ;
#68 = DIRECTION ( 'NONE',  ( 0.0000000000000000000, 0.0000000000000000000, 1.000000000000000000 ) ) ;
#69 = AXIS2_PLACEMENT_3D ( 'NONE', #90, #55, #155 ) ;
#70 =( GEOMETRIC_REPRESENTATION_CONTEXT ( 3 ) GLOBAL_UNCERTAINTY_ASSIGNED_CONTEXT ( ( #92 ) ) GLOBAL_UNIT_ASSIGNED_CONTEXT ( ( #16, #84, #158 ) ) REPRESENTATION_CONTEXT ( 'NONE', 'WORKASPACE' ) );
#71 = EDGE_CURVE ( 'NONE', #43, #58, #186, .T. ) ;
#72 = ORIENTED_EDGE ( 'NONE', *, *, #61, .T. ) ;
#73 = ORIENTED_EDGE ( 'NONE', *, *, #164, .F. ) ;
#74 = CARTESIAN_POINT ( 'NONE',  ( 5.000000000000000000, -6.123233995736766282E-16, 0.0000000000000000000 ) ) ;
#75 = PRODUCT_DEFINITION_FORMATION_WITH_SPECIFIED_SOURCE ( 'ANY', '', #174, .NOT_KNOWN. ) ;
#76 = ORIENTED_EDGE ( 'NONE', *, *, #194, .T. ) ;
#77 =( LENGTH_UNIT ( ) NAMED_UNIT ( * ) SI_UNIT ( .MILLI., .METRE. ) );
#78 = ORIENTED_EDGE ( 'NONE', *, *, #80, .F. ) ;
#79 = ORIENTED_EDGE ( 'NONE', *, *, #146, .F. ) ;
#80 = EDGE_CURVE ( 'NONE', #58, #43, #87, .T. ) ;
#81 = SURFACE_SIDE_STYLE ('',( #212 ) ) ;
#82 = AXIS2_PLACEMENT_3D ( 'NONE', #7, #91, #53 ) ;
#83 = AXIS2_PLACEMENT_3D ( 'NONE', #86, #68, #100 ) ;
#84 =( NAMED_UNIT ( * ) PLANE_ANGLE_UNIT ( ) SI_UNIT ( $, .RADIAN. ) );
#85 =( LENGTH_UNIT ( ) NAMED_UNIT ( * ) SI_UNIT ( .MILLI., .METRE. ) );
#86 = CARTESIAN_POINT ( 'NONE',  ( -2.360641207353319909E-16, 0.0000000000000000000, 0.0000000000000000000 ) ) ;
#87 = CIRCLE ( 'NONE', #114, 2.600000000000000089 ) ;
#88 = STYLED_ITEM ( 'NONE', ( #211 ), #177 ) ;
#89 = CYLINDRICAL_SURFACE ( 'NONE', #145, 2.600000000000000089 ) ;
#90 = CARTESIAN_POINT ( 'NONE',  ( 0.0000000000000000000, 0.0000000000000000000, 0.0000000000000000000 ) ) ;
#91 = DIRECTION ( 'NONE',  ( 0.0000000000000000000, 0.0000000000000000000, -1.000000000000000000 ) ) ;
#92 = UNCERTAINTY_MEASURE_WITH_UNIT (LENGTH_MEASURE( 1.000000000000000082E-05 ), #16, 'distance_accuracy_value', 'NONE');
#93 = CARTESIAN_POINT ( 'NONE',  ( 0.0000000000000000000, 0.0000000000000000000, 0.0000000000000000000 ) ) ;
#94 = DIRECTION ( 'NONE',  ( -1.000000000000000000, 0.0000000000000000000, 0.0000000000000000000 ) ) ;
#95 = ADVANCED_FACE ( 'NONE', ( #185 ), #12, .F. ) ;
#96 = UNCERTAINTY_MEASURE_WITH_UNIT (LENGTH_MEASURE( 1.000000000000000082E-05 ), #77, 'distance_accuracy_value', 'NONE');
#97 = DIRECTION ( 'NONE',  ( 0.0000000000000000000, 0.0000000000000000000, 1.000000000000000000 ) ) ;
#98 = APPLICATION_CONTEXT ( 'automotive_design' ) ;
#99 = AXIS2_PLACEMENT_3D ( 'NONE', #25, #19, #148 ) ;
#100 = DIRECTION ( 'NONE',  ( 1.000000000000000000, 0.0000000000000000000, 0.0000000000000000000 ) ) ;
#101 = PRESENTATION_LAYER_ASSIGNMENT (  '', '', ( #134 ) ) ;
#102 = PRODUCT_DEFINITION ( 'UNKNOWN', '', #75, #183 ) ;
#103 = MANIFOLD_SOLID_BREP ( 'A2115~1.STP', #118 ) ;
#104 = VECTOR ( 'NONE', #36, 1000.000000000000000 ) ;
#105 = CARTESIAN_POINT ( 'NONE',  ( -2.600000000000000089, 0.0000000000000000000, 1.000000000000000000 ) ) ;
#106 = DIRECTION ( 'NONE',  ( 0.0000000000000000000, 0.0000000000000000000, 1.000000000000000000 ) ) ;
#107 = ORIENTED_EDGE ( 'NONE', *, *, #124, .T. ) ;
#108 = ORIENTED_EDGE ( 'NONE', *, *, #57, .F. ) ;
#109 = ADVANCED_FACE ( 'NONE', ( #49 ), #30, .T. ) ;
#110 = DIRECTION ( 'NONE',  ( -1.000000000000000000, 0.0000000000000000000, 0.0000000000000000000 ) ) ;
#111 = VERTEX_POINT ( 'NONE', #152 ) ;
#112 = SHAPE_DEFINITION_REPRESENTATION ( #63, #177 ) ;
#113 = PRODUCT_CONTEXT ( 'NONE', #98, 'mechanical' ) ;
#114 = AXIS2_PLACEMENT_3D ( 'NONE', #122, #28, #110 ) ;
#115 = VECTOR ( 'NONE', #161, 1000.000000000000000 ) ;
#116 =( GEOMETRIC_REPRESENTATION_CONTEXT ( 3 ) GLOBAL_UNCERTAINTY_ASSIGNED_CONTEXT ( ( #20 ) ) GLOBAL_UNIT_ASSIGNED_CONTEXT ( ( #85, #195, #17 ) ) REPRESENTATION_CONTEXT ( 'NONE', 'WORKASPACE' ) );
#117 = LINE ( 'NONE', #176, #115 ) ;
#118 = CLOSED_SHELL ( 'NONE', ( #109, #119, #95, #23, #127, #142 ) ) ;
#119 = ADVANCED_FACE ( 'NONE', ( #136 ), #89, .F. ) ;
#120 = CIRCLE ( 'NONE', #69, 2.600000000000000089 ) ;
#121 = ORIENTED_EDGE ( 'NONE', *, *, #33, .F. ) ;
#122 = CARTESIAN_POINT ( 'NONE',  ( 0.0000000000000000000, 0.0000000000000000000, 1.000000000000000000 ) ) ;
#123 =( NAMED_UNIT ( * ) SI_UNIT ( $, .STERADIAN. ) SOLID_ANGLE_UNIT ( ) );
#124 = EDGE_CURVE ( 'NONE', #45, #22, #169, .T. ) ;
#125 = CARTESIAN_POINT ( 'NONE',  ( -2.600000000000000089, 0.0000000000000000000, 0.0000000000000000000 ) ) ;
#126 = APPLICATION_CONTEXT ( 'automotive_design' ) ;
#127 = ADVANCED_FACE ( 'NONE', ( #133, #66 ), #41, .F. ) ;
#128 = CIRCLE ( 'NONE', #201, 5.000000000000000000 ) ;
#129 = CARTESIAN_POINT ( 'NONE',  ( -2.360641207353319909E-16, 0.0000000000000000000, 1.000000000000000000 ) ) ;
#130 = EDGE_CURVE ( 'NONE', #111, #172, #214, .T. ) ;
#131 = CARTESIAN_POINT ( 'NONE',  ( 0.0000000000000000000, 0.0000000000000000000, 0.0000000000000000000 ) ) ;
#132 = FACE_BOUND ( 'NONE', #156, .T. ) ;
#133 = FACE_OUTER_BOUND ( 'NONE', #2, .T. ) ;
#134 = STYLED_ITEM ( 'NONE', ( #48 ), #103 ) ;
#135 = AXIS2_PLACEMENT_3D ( 'NONE', #129, #106, #196 ) ;
#136 = FACE_OUTER_BOUND ( 'NONE', #137, .T. ) ;
#137 = EDGE_LOOP ( 'NONE', ( #50, #24, #78, #108 ) ) ;
#138 = CARTESIAN_POINT ( 'NONE',  ( 2.600000000000000089, -3.184081677783118191E-16, 1.000000000000000000 ) ) ;
#139 = FACE_OUTER_BOUND ( 'NONE', #210, .T. ) ;
#140 = CYLINDRICAL_SURFACE ( 'NONE', #27, 5.000000000000000000 ) ;
#141 = FILL_AREA_STYLE_COLOUR ( '', #34 ) ;
#142 = ADVANCED_FACE ( 'NONE', ( #202, #132 ), #199, .T. ) ;
#143 = DIRECTION ( 'NONE',  ( -1.000000000000000000, 0.0000000000000000000, 0.0000000000000000000 ) ) ;
#144 = FILL_AREA_STYLE ('',( #141 ) ) ;
#145 = AXIS2_PLACEMENT_3D ( 'NONE', #65, #38, #67 ) ;
#146 = EDGE_CURVE ( 'NONE', #188, #172, #10, .T. ) ;
#147 = VECTOR ( 'NONE', #40, 1000.000000000000000 ) ;
#148 = DIRECTION ( 'NONE',  ( -1.000000000000000000, 0.0000000000000000000, 0.0000000000000000000 ) ) ;
#149 = PRESENTATION_LAYER_ASSIGNMENT (  '', '', ( #88 ) ) ;
#150 = ORIENTED_EDGE ( 'NONE', *, *, #164, .T. ) ;
#151 = MECHANICAL_DESIGN_GEOMETRIC_PRESENTATION_REPRESENTATION (  '', ( #134 ), #70 ) ;
#152 = CARTESIAN_POINT ( 'NONE',  ( -5.000000000000000000, 0.0000000000000000000, 0.0000000000000000000 ) ) ;
#153 = ORIENTED_EDGE ( 'NONE', *, *, #33, .T. ) ;
#154 = AXIS2_PLACEMENT_3D ( 'NONE', #51, #35, #54 ) ;
#155 = DIRECTION ( 'NONE',  ( -1.000000000000000000, 0.0000000000000000000, 0.0000000000000000000 ) ) ;
#156 = EDGE_LOOP ( 'NONE', ( #191, #198 ) ) ;
#157 = SURFACE_STYLE_USAGE ( .BOTH. , #81 ) ;
#158 =( NAMED_UNIT ( * ) SI_UNIT ( $, .STERADIAN. ) SOLID_ANGLE_UNIT ( ) );
#159 = EDGE_CURVE ( 'NONE', #14, #111, #128, .T. ) ;
#160 = AXIS2_PLACEMENT_3D ( 'NONE', #213, #200, #4 ) ;
#161 = DIRECTION ( 'NONE',  ( 0.0000000000000000000, 0.0000000000000000000, 1.000000000000000000 ) ) ;
#162 = CARTESIAN_POINT ( 'NONE',  ( 5.000000000000000000, -6.123233995736766282E-16, 1.000000000000000000 ) ) ;
#163 =( GEOMETRIC_REPRESENTATION_CONTEXT ( 3 ) GLOBAL_UNCERTAINTY_ASSIGNED_CONTEXT ( ( #96 ) ) GLOBAL_UNIT_ASSIGNED_CONTEXT ( ( #77, #62, #123 ) ) REPRESENTATION_CONTEXT ( 'NONE', 'WORKASPACE' ) );
#164 = EDGE_CURVE ( 'NONE', #14, #188, #182, .T. ) ;
#165 = ORIENTED_EDGE ( 'NONE', *, *, #130, .F. ) ;
#166 = CARTESIAN_POINT ( 'NONE',  ( -5.000000000000000000, 0.0000000000000000000, 1.000000000000000000 ) ) ;
#167 = DIRECTION ( 'NONE',  ( -1.000000000000000000, 0.0000000000000000000, 0.0000000000000000000 ) ) ;
#168 = AXIS2_PLACEMENT_3D ( 'NONE', #206, #56, #94 ) ;
#169 = CIRCLE ( 'NONE', #209, 2.600000000000000089 ) ;
#170 = DIRECTION ( 'NONE',  ( 0.0000000000000000000, 0.0000000000000000000, 1.000000000000000000 ) ) ;
#171 = DIRECTION ( 'NONE',  ( -1.000000000000000000, 0.0000000000000000000, 0.0000000000000000000 ) ) ;
#172 = VERTEX_POINT ( 'NONE', #166 ) ;
#173 = VECTOR ( 'NONE', #178, 1000.000000000000000 ) ;
#174 = PRODUCT ( 'A211 Âûñîêîòî÷íàÿ äèñòàíöèîííàÿ øàéáà 5 ìì', 'A211 Âûñîêîòî÷íàÿ äèñòàíöèîííàÿ øàéáà 5 ìì', '', ( #113 ) ) ;
#175 = AXIS2_PLACEMENT_3D ( 'NONE', #193, #29, #208 ) ;
#176 = CARTESIAN_POINT ( 'NONE',  ( 2.600000000000000089, -3.184081677783118191E-16, 0.0000000000000000000 ) ) ;
#177 = ADVANCED_BREP_SHAPE_REPRESENTATION ( 'A211 Tv¸þúþªþ¢ýð  ôø¸ªðý¡øþýýð  °ðùñð 5 üü', ( #103, #175 ), #116 ) ;
#178 = DIRECTION ( 'NONE',  ( 0.0000000000000000000, 0.0000000000000000000, 1.000000000000000000 ) ) ;
#179 = EDGE_LOOP ( 'NONE', ( #72, #107 ) ) ;
#180 = ORIENTED_EDGE ( 'NONE', *, *, #159, .F. ) ;
#181 = CARTESIAN_POINT ( 'NONE',  ( -2.600000000000000089, 0.0000000000000000000, 0.0000000000000000000 ) ) ;
#182 = LINE ( 'NONE', #64, #104 ) ;
#183 = PRODUCT_DEFINITION_CONTEXT ( 'detailed design', #126, 'design' ) ;
#184 = EDGE_LOOP ( 'NONE', ( #26, #207, #204, #44 ) ) ;
#185 = FACE_OUTER_BOUND ( 'NONE', #184, .T. ) ;
#186 = CIRCLE ( 'NONE', #168, 2.600000000000000089 ) ;
#187 = CIRCLE ( 'NONE', #99, 5.000000000000000000 ) ;
#188 = VERTEX_POINT ( 'NONE', #162 ) ;
#189 = SURFACE_STYLE_FILL_AREA ( #60 ) ;
#190 = EDGE_CURVE ( 'NONE', #45, #43, #117, .T. ) ;
#191 = ORIENTED_EDGE ( 'NONE', *, *, #80, .T. ) ;
#192 = APPLICATION_PROTOCOL_DEFINITION ( 'draft international standard', 'automotive_design', 1998, #126 ) ;
#193 = CARTESIAN_POINT ( 'NONE',  ( 0.0000000000000000000, 0.0000000000000000000, 0.0000000000000000000 ) ) ;
#194 = EDGE_CURVE ( 'NONE', #172, #188, #187, .T. ) ;
#195 =( NAMED_UNIT ( * ) PLANE_ANGLE_UNIT ( ) SI_UNIT ( $, .RADIAN. ) );
#196 = DIRECTION ( 'NONE',  ( 1.000000000000000000, 0.0000000000000000000, 0.0000000000000000000 ) ) ;
#197 = DIRECTION ( 'NONE',  ( 0.0000000000000000000, 0.0000000000000000000, 1.000000000000000000 ) ) ;
#198 = ORIENTED_EDGE ( 'NONE', *, *, #71, .T. ) ;
#199 = PLANE ( 'NONE',  #135 ) ;
#200 = DIRECTION ( 'NONE',  ( 0.0000000000000000000, 0.0000000000000000000, 1.000000000000000000 ) ) ;
#201 = AXIS2_PLACEMENT_3D ( 'NONE', #9, #1, #52 ) ;
#202 = FACE_OUTER_BOUND ( 'NONE', #205, .T. ) ;
#203 = EDGE_LOOP ( 'NONE', ( #180, #150, #8, #165 ) ) ;
#204 = ORIENTED_EDGE ( 'NONE', *, *, #57, .T. ) ;
#205 = EDGE_LOOP ( 'NONE', ( #76, #37 ) ) ;
#206 = CARTESIAN_POINT ( 'NONE',  ( 0.0000000000000000000, 0.0000000000000000000, 1.000000000000000000 ) ) ;
#207 = ORIENTED_EDGE ( 'NONE', *, *, #61, .F. ) ;
#208 = DIRECTION ( 'NONE',  ( 1.000000000000000000, 0.0000000000000000000, 0.0000000000000000000 ) ) ;
#209 = AXIS2_PLACEMENT_3D ( 'NONE', #131, #197, #143 ) ;
#210 = EDGE_LOOP ( 'NONE', ( #73, #121, #5, #79 ) ) ;
#211 = PRESENTATION_STYLE_ASSIGNMENT (( #15 ) ) ;
#212 = SURFACE_STYLE_FILL_AREA ( #144 ) ;
#213 = CARTESIAN_POINT ( 'NONE',  ( 0.0000000000000000000, 0.0000000000000000000, 0.0000000000000000000 ) ) ;
#214 = LINE ( 'NONE', #3, #173 ) ;
ENDSEC;
END-ISO-10303-21;
