ISO-10303-21;
HEADER;
FILE_DESCRIPTION (( 'STEP AP214' ),
    '1' );
FILE_NAME ('Ñáîðêà1.STEP',
    '2024-12-03T08:39:54',
    ( '' ),
    ( '' ),
    'SwSTEP 2.0',
    'SolidWorks 2024',
    '' );
FILE_SCHEMA (( 'AUTOMOTIVE_DESIGN' ));
ENDSEC;

DATA;
#1 = ORIENTED_EDGE ( 'NONE', *, *, #327, .T. ) ;
#2 = AXIS2_PLACEMENT_3D ( 'NONE', #140, #216, #272 ) ;
#3 = DIRECTION ( 'NONE',  ( 0.000000000000000000, 0.000000000000000000, -1.000000000000000000 ) ) ;
#4 = ORIENTED_EDGE ( 'NONE', *, *, #139, .F. ) ;
#5 = CARTESIAN_POINT ( 'NONE',  ( -10.00000000000000000, -10.00000000000000000, 0.000000000000000000 ) ) ;
#6 = MECHANICAL_DESIGN_GEOMETRIC_PRESENTATION_REPRESENTATION (  '', ( #220 ), #199 ) ;
#7 = CARTESIAN_POINT ( 'NONE',  ( 8.000000000000001776, -8.000000000000000000, 0.000000000000000000 ) ) ;
#8 = CARTESIAN_POINT ( 'NONE',  ( 10.00000000000000000, 10.00000000000000000, 0.000000000000000000 ) ) ;
#9 = EDGE_CURVE ( 'NONE', #171, #28, #38, .T. ) ;
#10 = PLANE ( 'NONE',  #316 ) ;
#11 = UNCERTAINTY_MEASURE_WITH_UNIT (LENGTH_MEASURE( 1.000000000000000082E-05 ), #116, 'distance_accuracy_value', 'NONE');
#12 = COLOUR_RGB ( '',0.7921568627450980005, 0.8196078431372548767, 0.9333333333333333481 ) ;
#13 = CARTESIAN_POINT ( 'NONE',  ( -8.000000000000000000, -8.000000000000000000, 0.000000000000000000 ) ) ;
#14 = LINE ( 'NONE', #13, #355 ) ;
#15 = ADVANCED_FACE ( 'NONE', ( #146, #67 ), #126, .T. ) ;
#16 = AXIS2_PLACEMENT_3D ( 'NONE', #310, #280, #207 ) ;
#17 =( REPRESENTATION_RELATIONSHIP ('NONE','NONE', #58, #239 ) REPRESENTATION_RELATIONSHIP_WITH_TRANSFORMATION ( #125 )SHAPE_REPRESENTATION_RELATIONSHIP( ) );
#18 = VECTOR ( 'NONE', #347, 1000.000000000000000 ) ;
#19 = ORIENTED_EDGE ( 'NONE', *, *, #77, .F. ) ;
#20 = EDGE_CURVE ( 'NONE', #94, #341, #287, .T. ) ;
#21 = DIRECTION ( 'NONE',  ( 1.000000000000000000, 0.000000000000000000, 0.000000000000000000 ) ) ;
#22 = ORIENTED_EDGE ( 'NONE', *, *, #77, .T. ) ;
#23 = CARTESIAN_POINT ( 'NONE',  ( 10.00000000000000000, -10.00000000000000000, 0.000000000000000000 ) ) ;
#24 = EDGE_CURVE ( 'NONE', #275, #303, #72, .T. ) ;
#25 = ORIENTED_EDGE ( 'NONE', *, *, #350, .T. ) ;
#26 = PRODUCT_DEFINITION_FORMATION_WITH_SPECIFIED_SOURCE ( 'ANY', '', #172, .NOT_KNOWN. ) ;
#27 = CARTESIAN_POINT ( 'NONE',  ( -10.00000000000000000, -10.00000000000000000, 1000.000000000000000 ) ) ;
#28 = VERTEX_POINT ( 'NONE', #97 ) ;
#29 = VECTOR ( 'NONE', #47, 1000.000000000000000 ) ;
#30 = CARTESIAN_POINT ( 'NONE',  ( 0.000000000000000000, 0.000000000000000000, 1000.000000000000000 ) ) ;
#31 = ORIENTED_EDGE ( 'NONE', *, *, #175, .T. ) ;
#32 = EDGE_CURVE ( 'NONE', #352, #275, #181, .T. ) ;
#33 = PLANE ( 'NONE',  #112 ) ;
#34 = CARTESIAN_POINT ( 'NONE',  ( -8.000000000000000000, 8.000000000000000000, 0.000000000000000000 ) ) ;
#35 = VECTOR ( 'NONE', #241, 1000.000000000000000 ) ;
#36 = SHAPE_DEFINITION_REPRESENTATION ( #119, #239 ) ;
#37 = ORIENTED_EDGE ( 'NONE', *, *, #64, .F. ) ;
#38 = LINE ( 'NONE', #7, #158 ) ;
#39 = VERTEX_POINT ( 'NONE', #281 ) ;
#40 = CARTESIAN_POINT ( 'NONE',  ( 10.00000000000000000, 10.00000000000000000, 1000.000000000000000 ) ) ;
#41 = APPLICATION_CONTEXT ( 'automotive_design' ) ;
#42 = CARTESIAN_POINT ( 'NONE',  ( 10.00000000000000000, 10.00000000000000000, 1000.000000000000000 ) ) ;
#43 = CARTESIAN_POINT ( 'NONE',  ( -8.000000000000000000, -8.000000000000000000, 0.000000000000000000 ) ) ;
#44 = VECTOR ( 'NONE', #289, 1000.000000000000000 ) ;
#45 = PRODUCT_DEFINITION_FORMATION_WITH_SPECIFIED_SOURCE ( 'ANY', '', #266, .NOT_KNOWN. ) ;
#46 = VECTOR ( 'NONE', #260, 1000.000000000000000 ) ;
#47 = DIRECTION ( 'NONE',  ( -0.000000000000000000, -0.000000000000000000, -1.000000000000000000 ) ) ;
#48 = DIRECTION ( 'NONE',  ( -1.000000000000000000, -1.084202172485504434E-16, 0.000000000000000000 ) ) ;
#49 = CARTESIAN_POINT ( 'NONE',  ( 8.000000000000001776, -8.000000000000000000, 1000.000000000000000 ) ) ;
#50 = ORIENTED_EDGE ( 'NONE', *, *, #9, .F. ) ;
#51 = VECTOR ( 'NONE', #224, 1000.000000000000000 ) ;
#52 = PLANE ( 'NONE',  #237 ) ;
#53 = EDGE_LOOP ( 'NONE', ( #177, #108, #269, #325 ) ) ;
#54 = FACE_BOUND ( 'NONE', #117, .T. ) ;
#55 = EDGE_LOOP ( 'NONE', ( #22, #278, #227, #118 ) ) ;
#56 = LINE ( 'NONE', #351, #282 ) ;
#57 = VERTEX_POINT ( 'NONE', #231 ) ;
#58 = SHAPE_REPRESENTATION ( '\X2\04210431043e0440043a0430\X0\1', ( #16, #254 ), #136 ) ;
#59 = DIRECTION ( 'NONE',  ( -1.000000000000000000, 0.000000000000000000, -0.000000000000000000 ) ) ;
#60 = ORIENTED_EDGE ( 'NONE', *, *, #24, .T. ) ;
#61 = EDGE_CURVE ( 'NONE', #94, #352, #123, .T. ) ;
#62 = DIRECTION ( 'NONE',  ( -0.000000000000000000, -0.000000000000000000, -1.000000000000000000 ) ) ;
#63 = ORIENTED_EDGE ( 'NONE', *, *, #292, .T. ) ;
#64 = EDGE_CURVE ( 'NONE', #28, #168, #284, .T. ) ;
#65 = CARTESIAN_POINT ( 'NONE',  ( 0.000000000000000000, 0.000000000000000000, 0.000000000000000000 ) ) ;
#66 = AXIS2_PLACEMENT_3D ( 'NONE', #358, #356, #277 ) ;
#67 = FACE_BOUND ( 'NONE', #357, .T. ) ;
#68 = CLOSED_SHELL ( 'NONE', ( #298, #15, #87, #276, #104, #288, #267, #205, #242, #111 ) ) ;
#69 = APPLICATION_PROTOCOL_DEFINITION ( 'draft international standard', 'automotive_design', 1998, #240 ) ;
#70 = CARTESIAN_POINT ( 'NONE',  ( -10.00000000000000000, 10.00000000000000000, 0.000000000000000000 ) ) ;
#71 = PRODUCT_CONTEXT ( 'NONE', #41, 'mechanical' ) ;
#72 = LINE ( 'NONE', #5, #228 ) ;
#73 = VECTOR ( 'NONE', #76, 1000.000000000000000 ) ;
#74 = CARTESIAN_POINT ( 'NONE',  ( 8.000000000000001776, -8.000000000000000000, 1000.000000000000000 ) ) ;
#75 = PRODUCT_DEFINITION_CONTEXT ( 'detailed design', #198, 'design' ) ;
#76 = DIRECTION ( 'NONE',  ( -0.000000000000000000, -0.000000000000000000, -1.000000000000000000 ) ) ;
#77 = EDGE_CURVE ( 'NONE', #303, #141, #234, .T. ) ;
#78 = LINE ( 'NONE', #130, #301 ) ;
#79 = PRESENTATION_LAYER_ASSIGNMENT (  '', '', ( #220 ) ) ;
#80 = SURFACE_SIDE_STYLE ('',( #155 ) ) ;
#81 = ORIENTED_EDGE ( 'NONE', *, *, #128, .F. ) ;
#82 = FACE_OUTER_BOUND ( 'NONE', #53, .T. ) ;
#83 = DIRECTION ( 'NONE',  ( 0.000000000000000000, 1.000000000000000000, 0.000000000000000000 ) ) ;
#84 = ORIENTED_EDGE ( 'NONE', *, *, #201, .T. ) ;
#85 = CARTESIAN_POINT ( 'NONE',  ( 0.000000000000000000, 0.000000000000000000, 0.000000000000000000 ) ) ;
#86 = ORIENTED_EDGE ( 'NONE', *, *, #319, .T. ) ;
#87 = ADVANCED_FACE ( 'NONE', ( #200 ), #33, .F. ) ;
#88 = ORIENTED_EDGE ( 'NONE', *, *, #100, .F. ) ;
#89 = ADVANCED_BREP_SHAPE_REPRESENTATION ( '', ( #211, #243 ), #206 ) ;
#90 = PRODUCT_CONTEXT ( 'NONE', #95, 'mechanical' ) ;
#91 = DIRECTION ( 'NONE',  ( -1.000000000000000000, -0.000000000000000000, -0.000000000000000000 ) ) ;
#92 = LINE ( 'NONE', #324, #210 ) ;
#93 = APPLICATION_PROTOCOL_DEFINITION ( 'draft international standard', 'automotive_design', 1998, #41 ) ;
#94 = VERTEX_POINT ( 'NONE', #334 ) ;
#95 = APPLICATION_CONTEXT ( 'automotive_design' ) ;
#96 = VECTOR ( 'NONE', #343, 1000.000000000000000 ) ;
#97 = CARTESIAN_POINT ( 'NONE',  ( 8.000000000000000000, 8.000000000000001776, 0.000000000000000000 ) ) ;
#98 = DIRECTION ( 'NONE',  ( -0.000000000000000000, -0.000000000000000000, -1.000000000000000000 ) ) ;
#99 =( NAMED_UNIT ( * ) PLANE_ANGLE_UNIT ( ) SI_UNIT ( $, .RADIAN. ) );
#100 = EDGE_CURVE ( 'NONE', #141, #352, #152, .T. ) ;
#101 = VECTOR ( 'NONE', #91, 1000.000000000000000 ) ;
#102 = DIRECTION ( 'NONE',  ( 0.000000000000000000, 0.000000000000000000, -1.000000000000000000 ) ) ;
#103 = DIRECTION ( 'NONE',  ( 1.000000000000000000, 0.000000000000000000, 0.000000000000000000 ) ) ;
#104 = ADVANCED_FACE ( 'NONE', ( #232 ), #202, .F. ) ;
#105 = FILL_AREA_STYLE_COLOUR ( '', #12 ) ;
#106 =( NAMED_UNIT ( * ) PLANE_ANGLE_UNIT ( ) SI_UNIT ( $, .RADIAN. ) );
#107 = UNCERTAINTY_MEASURE_WITH_UNIT (LENGTH_MEASURE( 1.000000000000000082E-05 ), #176, 'distance_accuracy_value', 'NONE');
#108 = ORIENTED_EDGE ( 'NONE', *, *, #61, .F. ) ;
#109 = LINE ( 'NONE', #144, #344 ) ;
#110 = ORIENTED_EDGE ( 'NONE', *, *, #64, .T. ) ;
#111 = ADVANCED_FACE ( 'NONE', ( #208 ), #180, .T. ) ;
#112 = AXIS2_PLACEMENT_3D ( 'NONE', #257, #253, #229 ) ;
#113 = VECTOR ( 'NONE', #173, 1000.000000000000000 ) ;
#114 = CARTESIAN_POINT ( 'NONE',  ( -10.00000000000000000, -10.00000000000000000, 0.000000000000000000 ) ) ;
#115 = ORIENTED_EDGE ( 'NONE', *, *, #319, .F. ) ;
#116 =( LENGTH_UNIT ( ) NAMED_UNIT ( * ) SI_UNIT ( .MILLI., .METRE. ) );
#117 = EDGE_LOOP ( 'NONE', ( #203, #197, #163, #222 ) ) ;
#118 = ORIENTED_EDGE ( 'NONE', *, *, #304, .T. ) ;
#119 = PRODUCT_DEFINITION_SHAPE ( 'NONE', 'NONE',  #212 ) ;
#120 = VECTOR ( 'NONE', #183, 1000.000000000000000 ) ;
#121 = DIRECTION ( 'NONE',  ( 0.000000000000000000, 0.000000000000000000, -1.000000000000000000 ) ) ;
#122 = DIRECTION ( 'NONE',  ( 0.000000000000000000, 0.000000000000000000, 1.000000000000000000 ) ) ;
#123 = LINE ( 'NONE', #313, #255 ) ;
#124 = PRODUCT_RELATED_PRODUCT_CATEGORY ( 'part', '', ( #266 ) ) ;
#125 = ITEM_DEFINED_TRANSFORMATION ( 'NONE', 'NONE', #254,  #243 ) ;
#126 = PLANE ( 'NONE',  #332 ) ;
#127 = CARTESIAN_POINT ( 'NONE',  ( -10.00000000000000000, -10.00000000000000000, 0.000000000000000000 ) ) ;
#128 = EDGE_CURVE ( 'NONE', #261, #145, #262, .T. ) ;
#129 = DIRECTION ( 'NONE',  ( -1.000000000000000000, 0.000000000000000000, -0.000000000000000000 ) ) ;
#130 = CARTESIAN_POINT ( 'NONE',  ( -10.00000000000000000, -10.00000000000000000, 1000.000000000000000 ) ) ;
#131 = UNCERTAINTY_MEASURE_WITH_UNIT (LENGTH_MEASURE( 1.000000000000000082E-05 ), #214, 'distance_accuracy_value', 'NONE');
#132 = CARTESIAN_POINT ( 'NONE',  ( -8.000000000000000000, 8.000000000000000000, 1000.000000000000000 ) ) ;
#133 = DIRECTION ( 'NONE',  ( 1.000000000000000000, 0.000000000000000000, 0.000000000000000000 ) ) ;
#134 = PLANE ( 'NONE',  #339 ) ;
#135 =( NAMED_UNIT ( * ) SI_UNIT ( $, .STERADIAN. ) SOLID_ANGLE_UNIT ( ) );
#136 =( GEOMETRIC_REPRESENTATION_CONTEXT ( 3 ) GLOBAL_UNCERTAINTY_ASSIGNED_CONTEXT ( ( #107 ) ) GLOBAL_UNIT_ASSIGNED_CONTEXT ( ( #176, #335, #178 ) ) REPRESENTATION_CONTEXT ( 'NONE', 'WORKASPACE' ) );
#137 = AXIS2_PLACEMENT_3D ( 'NONE', #153, #133, #102 ) ;
#138 = ORIENTED_EDGE ( 'NONE', *, *, #9, .T. ) ;
#139 = EDGE_CURVE ( 'NONE', #341, #275, #78, .T. ) ;
#140 = CARTESIAN_POINT ( 'NONE',  ( -10.00000000000000000, -10.00000000000000000, 1000.000000000000000 ) ) ;
#141 = VERTEX_POINT ( 'NONE', #8 ) ;
#142 = DIRECTION ( 'NONE',  ( 0.000000000000000000, 1.000000000000000000, 0.000000000000000000 ) ) ;
#143 = ORIENTED_EDGE ( 'NONE', *, *, #348, .T. ) ;
#144 = CARTESIAN_POINT ( 'NONE',  ( -8.000000000000000000, -8.000000000000000000, 1000.000000000000000 ) ) ;
#145 = VERTEX_POINT ( 'NONE', #238 ) ;
#146 = FACE_OUTER_BOUND ( 'NONE', #331, .T. ) ;
#147 = EDGE_CURVE ( 'NONE', #145, #171, #14, .T. ) ;
#148 = VECTOR ( 'NONE', #167, 1000.000000000000000 ) ;
#149 = CARTESIAN_POINT ( 'NONE',  ( 10.00000000000000000, -10.00000000000000000, 0.000000000000000000 ) ) ;
#150 = CARTESIAN_POINT ( 'NONE',  ( 996.7489301358025386, 1006.409766940549389, 496.8423446063967504 ) ) ;
#151 = PRODUCT_RELATED_PRODUCT_CATEGORY ( 'part', '', ( #172 ) ) ;
#152 = LINE ( 'NONE', #70, #101 ) ;
#153 = CARTESIAN_POINT ( 'NONE',  ( -8.000000000000000000, -8.000000000000000000, 1000.000000000000000 ) ) ;
#154 = VERTEX_POINT ( 'NONE', #157 ) ;
#155 = SURFACE_STYLE_FILL_AREA ( #264 ) ;
#156 = LINE ( 'NONE', #43, #18 ) ;
#157 = CARTESIAN_POINT ( 'NONE',  ( -8.000000000000000000, 8.000000000000000000, 1000.000000000000000 ) ) ;
#158 = VECTOR ( 'NONE', #311, 1000.000000000000000 ) ;
#159 = CARTESIAN_POINT ( 'NONE',  ( -8.000000000000000000, -8.000000000000000000, 1000.000000000000000 ) ) ;
#160 = DIRECTION ( 'NONE',  ( -0.000000000000000000, -0.000000000000000000, -1.000000000000000000 ) ) ;
#161 = AXIS2_PLACEMENT_3D ( 'NONE', #221, #83, #353 ) ;
#162 = FACE_OUTER_BOUND ( 'NONE', #189, .T. ) ;
#163 = ORIENTED_EDGE ( 'NONE', *, *, #175, .F. ) ;
#164 = EDGE_CURVE ( 'NONE', #225, #141, #185, .T. ) ;
#165 = PLANE ( 'NONE',  #2 ) ;
#166 = ORIENTED_EDGE ( 'NONE', *, *, #147, .T. ) ;
#167 = DIRECTION ( 'NONE',  ( -0.000000000000000000, -0.000000000000000000, -1.000000000000000000 ) ) ;
#168 = VERTEX_POINT ( 'NONE', #184 ) ;
#169 = AXIS2_PLACEMENT_3D ( 'NONE', #309, #338, #3 ) ;
#170 = CARTESIAN_POINT ( 'NONE',  ( 10.00000000000000000, -10.00000000000000000, 1000.000000000000000 ) ) ;
#171 = VERTEX_POINT ( 'NONE', #294 ) ;
#172 = PRODUCT ( 'PS20S2 \X2\041f0440043e04440438043b044c\X0\ \X2\0430043b044e043c0438043d043804350432044b0439\X0\, \X2\043a043204300434044004300442\X0\ 20x20x2 (\X2\041104350437\X0\ \X2\043f043e043a0440044b04420438044f\X0\)_00', 'PS20S2 \X2\041f0440043e04440438043b044c\X0\ \X2\0430043b044e043c0438043d043804350432044b0439\X0\, \X2\043a043204300434044004300442\X0\ 20x20x2 (\X2\041104350437\X0\ \X2\043f043e043a0440044b04420438044f\X0\)_00', '', ( #71 ) ) ;
#173 = DIRECTION ( 'NONE',  ( -1.000000000000000000, -1.084202172485504434E-16, -0.000000000000000000 ) ) ;
#174 = EDGE_LOOP ( 'NONE', ( #359, #307, #273, #219 ) ) ;
#175 = EDGE_CURVE ( 'NONE', #57, #154, #265, .T. ) ;
#176 =( LENGTH_UNIT ( ) NAMED_UNIT ( * ) SI_UNIT ( .MILLI., .METRE. ) );
#177 = ORIENTED_EDGE ( 'NONE', *, *, #100, .T. ) ;
#178 =( NAMED_UNIT ( * ) SI_UNIT ( $, .STERADIAN. ) SOLID_ANGLE_UNIT ( ) );
#179 = EDGE_CURVE ( 'NONE', #57, #28, #295, .T. ) ;
#180 = PLANE ( 'NONE',  #137 ) ;
#181 = LINE ( 'NONE', #127, #249 ) ;
#182 = LINE ( 'NONE', #317, #120 ) ;
#183 = DIRECTION ( 'NONE',  ( -1.000000000000000000, -0.000000000000000000, -0.000000000000000000 ) ) ;
#184 = CARTESIAN_POINT ( 'NONE',  ( -8.000000000000000000, 8.000000000000000000, 0.000000000000000000 ) ) ;
#185 = LINE ( 'NONE', #40, #35 ) ;
#186 = DIRECTION ( 'NONE',  ( 1.084202172485504434E-16, -1.000000000000000000, 0.000000000000000000 ) ) ;
#187 =( NAMED_UNIT ( * ) SI_UNIT ( $, .STERADIAN. ) SOLID_ANGLE_UNIT ( ) );
#188 = DIRECTION ( 'NONE',  ( 0.000000000000000000, 0.000000000000000000, 1.000000000000000000 ) ) ;
#189 = EDGE_LOOP ( 'NONE', ( #60, #336, #252, #259 ) ) ;
#190 = AXIS2_PLACEMENT_3D ( 'NONE', #65, #122, #230 ) ;
#191 = PLANE ( 'NONE',  #161 ) ;
#192 = ORIENTED_EDGE ( 'NONE', *, *, #24, .F. ) ;
#193 = DIRECTION ( 'NONE',  ( 1.000000000000000000, 0.000000000000000000, 0.000000000000000000 ) ) ;
#194 = ORIENTED_EDGE ( 'NONE', *, *, #215, .T. ) ;
#195 = PLANE ( 'NONE',  #66 ) ;
#196 = VERTEX_POINT ( 'NONE', #321 ) ;
#197 = ORIENTED_EDGE ( 'NONE', *, *, #342, .F. ) ;
#198 = APPLICATION_CONTEXT ( 'automotive_design' ) ;
#199 =( GEOMETRIC_REPRESENTATION_CONTEXT ( 3 ) GLOBAL_UNCERTAINTY_ASSIGNED_CONTEXT ( ( #131 ) ) GLOBAL_UNIT_ASSIGNED_CONTEXT ( ( #214, #99, #135 ) ) REPRESENTATION_CONTEXT ( 'NONE', 'WORKASPACE' ) );
#200 = FACE_OUTER_BOUND ( 'NONE', #55, .T. ) ;
#201 = EDGE_CURVE ( 'NONE', #39, #57, #320, .T. ) ;
#202 = PLANE ( 'NONE',  #169 ) ;
#203 = ORIENTED_EDGE ( 'NONE', *, *, #350, .F. ) ;
#204 = VECTOR ( 'NONE', #346, 1000.000000000000000 ) ;
#205 = ADVANCED_FACE ( 'NONE', ( #293 ), #134, .T. ) ;
#206 =( GEOMETRIC_REPRESENTATION_CONTEXT ( 3 ) GLOBAL_UNCERTAINTY_ASSIGNED_CONTEXT ( ( #11 ) ) GLOBAL_UNIT_ASSIGNED_CONTEXT ( ( #116, #106, #187 ) ) REPRESENTATION_CONTEXT ( 'NONE', 'WORKASPACE' ) );
#207 = DIRECTION ( 'NONE',  ( 1.000000000000000000, 0.000000000000000000, 0.000000000000000000 ) ) ;
#208 = FACE_OUTER_BOUND ( 'NONE', #174, .T. ) ;
#209 = CARTESIAN_POINT ( 'NONE',  ( -10.00000000000000000, -10.00000000000000000, 1000.000000000000000 ) ) ;
#210 = VECTOR ( 'NONE', #193, 1000.000000000000000 ) ;
#211 = MANIFOLD_SOLID_BREP ( '\X2\0411043e0431044b0448043a0430\X0\-\X2\0412044b0442044f043d04430442044c\X0\1', #68 ) ;
#212 = PRODUCT_DEFINITION ( 'UNKNOWN', '', #26, #75 ) ;
#213 = CARTESIAN_POINT ( 'NONE',  ( 8.000000000000000000, 8.000000000000001776, 1000.000000000000000 ) ) ;
#214 =( LENGTH_UNIT ( ) NAMED_UNIT ( * ) SI_UNIT ( .MILLI., .METRE. ) );
#215 = EDGE_CURVE ( 'NONE', #225, #94, #182, .T. ) ;
#216 = DIRECTION ( 'NONE',  ( 0.000000000000000000, 1.000000000000000000, 0.000000000000000000 ) ) ;
#217 = ORIENTED_EDGE ( 'NONE', *, *, #20, .F. ) ;
#218 = VECTOR ( 'NONE', #329, 1000.000000000000000 ) ;
#219 = ORIENTED_EDGE ( 'NONE', *, *, #128, .T. ) ;
#220 = STYLED_ITEM ( 'NONE', ( #236 ), #211 ) ;
#221 = CARTESIAN_POINT ( 'NONE',  ( -8.000000000000000000, -8.000000000000000000, 1000.000000000000000 ) ) ;
#222 = ORIENTED_EDGE ( 'NONE', *, *, #201, .F. ) ;
#223 = PRODUCT_DEFINITION_SHAPE ( 'NONE', 'NONE',  #360 ) ;
#224 = DIRECTION ( 'NONE',  ( -0.000000000000000000, -0.000000000000000000, -1.000000000000000000 ) ) ;
#225 = VERTEX_POINT ( 'NONE', #42 ) ;
#226 = EDGE_CURVE ( 'NONE', #168, #145, #156, .T. ) ;
#227 = ORIENTED_EDGE ( 'NONE', *, *, #348, .F. ) ;
#228 = VECTOR ( 'NONE', #279, 1000.000000000000000 ) ;
#229 = DIRECTION ( 'NONE',  ( 0.000000000000000000, 0.000000000000000000, 1.000000000000000000 ) ) ;
#230 = DIRECTION ( 'NONE',  ( 1.000000000000000000, 0.000000000000000000, 0.000000000000000000 ) ) ;
#231 = CARTESIAN_POINT ( 'NONE',  ( 8.000000000000000000, 8.000000000000001776, 1000.000000000000000 ) ) ;
#232 = FACE_OUTER_BOUND ( 'NONE', #308, .T. ) ;
#233 = DIRECTION ( 'NONE',  ( -0.000000000000000000, -1.000000000000000000, -0.000000000000000000 ) ) ;
#234 = LINE ( 'NONE', #149, #96 ) ;
#235 = CARTESIAN_POINT ( 'NONE',  ( 8.000000000000001776, -8.000000000000000000, 1000.000000000000000 ) ) ;
#236 = PRESENTATION_STYLE_ASSIGNMENT (( #290 ) ) ;
#237 = AXIS2_PLACEMENT_3D ( 'NONE', #30, #274, #59 ) ;
#238 = CARTESIAN_POINT ( 'NONE',  ( -8.000000000000000000, -8.000000000000000000, 0.000000000000000000 ) ) ;
#239 = SHAPE_REPRESENTATION ( 'PS20S2 \X2\041f0440043e04440438043b044c\X0\ \X2\0430043b044e043c0438043d043804350432044b0439\X0\, \X2\043a043204300434044004300442\X0\ 20x20x2 (\X2\041104350437\X0\ \X2\043f043e043a0440044b04420438044f\X0\)_00', ( #243 ), #206 ) ;
#240 = APPLICATION_CONTEXT ( 'automotive_design' ) ;
#241 = DIRECTION ( 'NONE',  ( -0.000000000000000000, -0.000000000000000000, -1.000000000000000000 ) ) ;
#242 = ADVANCED_FACE ( 'NONE', ( #263 ), #10, .T. ) ;
#243 = AXIS2_PLACEMENT_3D ( 'NONE', #85, #188, #21 ) ;
#244 = ORIENTED_EDGE ( 'NONE', *, *, #179, .T. ) ;
#245 = CARTESIAN_POINT ( 'NONE',  ( -8.000000000000000000, 8.000000000000000000, 1000.000000000000000 ) ) ;
#246 = ORIENTED_EDGE ( 'NONE', *, *, #32, .F. ) ;
#247 = CARTESIAN_POINT ( 'NONE',  ( -10.00000000000000000, 10.00000000000000000, 0.000000000000000000 ) ) ;
#248 = EDGE_LOOP ( 'NONE', ( #143, #194, #305, #63 ) ) ;
#249 = VECTOR ( 'NONE', #233, 1000.000000000000000 ) ;
#250 = DIRECTION ( 'NONE',  ( 1.000000000000000000, 0.000000000000000000, 0.000000000000000000 ) ) ;
#251 = ORIENTED_EDGE ( 'NONE', *, *, #179, .F. ) ;
#252 = ORIENTED_EDGE ( 'NONE', *, *, #292, .F. ) ;
#253 = DIRECTION ( 'NONE',  ( -1.000000000000000000, 0.000000000000000000, 0.000000000000000000 ) ) ;
#254 = AXIS2_PLACEMENT_3D ( 'NONE', #150, #258, #283 ) ;
#255 = VECTOR ( 'NONE', #62, 1000.000000000000000 ) ;
#256 = APPLICATION_PROTOCOL_DEFINITION ( 'draft international standard', 'automotive_design', 1998, #95 ) ;
#257 = CARTESIAN_POINT ( 'NONE',  ( 10.00000000000000000, -10.00000000000000000, 1000.000000000000000 ) ) ;
#258 = DIRECTION ( 'NONE',  ( 0.000000000000000000, 0.000000000000000000, 1.000000000000000000 ) ) ;
#259 = ORIENTED_EDGE ( 'NONE', *, *, #139, .T. ) ;
#260 = DIRECTION ( 'NONE',  ( -0.000000000000000000, -1.000000000000000000, -0.000000000000000000 ) ) ;
#261 = VERTEX_POINT ( 'NONE', #296 ) ;
#262 = LINE ( 'NONE', #159, #29 ) ;
#263 = FACE_OUTER_BOUND ( 'NONE', #354, .T. ) ;
#264 = FILL_AREA_STYLE ('',( #105 ) ) ;
#265 = LINE ( 'NONE', #315, #204 ) ;
#266 = PRODUCT ( '\X2\04210431043e0440043a0430\X0\1', '\X2\04210431043e0440043a0430\X0\1', '', ( #90 ) ) ;
#267 = ADVANCED_FACE ( 'NONE', ( #302 ), #191, .T. ) ;
#268 = LINE ( 'NONE', #245, #148 ) ;
#269 = ORIENTED_EDGE ( 'NONE', *, *, #215, .F. ) ;
#270 = LINE ( 'NONE', #349, #218 ) ;
#271 = ORIENTED_EDGE ( 'NONE', *, *, #226, .T. ) ;
#272 = DIRECTION ( 'NONE',  ( 0.000000000000000000, -0.000000000000000000, 1.000000000000000000 ) ) ;
#273 = ORIENTED_EDGE ( 'NONE', *, *, #342, .T. ) ;
#274 = DIRECTION ( 'NONE',  ( 0.000000000000000000, 0.000000000000000000, -1.000000000000000000 ) ) ;
#275 = VERTEX_POINT ( 'NONE', #114 ) ;
#276 = ADVANCED_FACE ( 'NONE', ( #82 ), #195, .F. ) ;
#277 = DIRECTION ( 'NONE',  ( 0.000000000000000000, -0.000000000000000000, -1.000000000000000000 ) ) ;
#278 = ORIENTED_EDGE ( 'NONE', *, *, #164, .F. ) ;
#279 = DIRECTION ( 'NONE',  ( 1.000000000000000000, 0.000000000000000000, 0.000000000000000000 ) ) ;
#280 = DIRECTION ( 'NONE',  ( 0.000000000000000000, 0.000000000000000000, 1.000000000000000000 ) ) ;
#281 = CARTESIAN_POINT ( 'NONE',  ( 8.000000000000001776, -8.000000000000000000, 1000.000000000000000 ) ) ;
#282 = VECTOR ( 'NONE', #160, 1000.000000000000000 ) ;
#283 = DIRECTION ( 'NONE',  ( 1.000000000000000000, 0.000000000000000000, 0.000000000000000000 ) ) ;
#284 = LINE ( 'NONE', #34, #113 ) ;
#285 = SHAPE_DEFINITION_REPRESENTATION ( #328, #58 ) ;
#286 = CARTESIAN_POINT ( 'NONE',  ( 0.000000000000000000, 0.000000000000000000, 0.000000000000000000 ) ) ;
#287 = LINE ( 'NONE', #209, #46 ) ;
#288 = ADVANCED_FACE ( 'NONE', ( #162 ), #165, .F. ) ;
#289 = DIRECTION ( 'NONE',  ( -1.084202172485504434E-16, 1.000000000000000000, 0.000000000000000000 ) ) ;
#290 = SURFACE_STYLE_USAGE ( .BOTH. , #80 ) ;
#291 = PRODUCT_DEFINITION_CONTEXT ( 'detailed design', #240, 'design' ) ;
#292 = EDGE_CURVE ( 'NONE', #341, #196, #92, .T. ) ;
#293 = FACE_OUTER_BOUND ( 'NONE', #297, .T. ) ;
#294 = CARTESIAN_POINT ( 'NONE',  ( 8.000000000000001776, -8.000000000000000000, 0.000000000000000000 ) ) ;
#295 = LINE ( 'NONE', #213, #73 ) ;
#296 = CARTESIAN_POINT ( 'NONE',  ( -8.000000000000000000, -8.000000000000000000, 1000.000000000000000 ) ) ;
#297 = EDGE_LOOP ( 'NONE', ( #50, #115, #84, #244 ) ) ;
#298 = ADVANCED_FACE ( 'NONE', ( #299, #54 ), #52, .F. ) ;
#299 = FACE_OUTER_BOUND ( 'NONE', #248, .T. ) ;
#300 = ORIENTED_EDGE ( 'NONE', *, *, #32, .T. ) ;
#301 = VECTOR ( 'NONE', #98, 1000.000000000000000 ) ;
#302 = FACE_OUTER_BOUND ( 'NONE', #323, .T. ) ;
#303 = VERTEX_POINT ( 'NONE', #23 ) ;
#304 = EDGE_CURVE ( 'NONE', #196, #303, #56, .T. ) ;
#305 = ORIENTED_EDGE ( 'NONE', *, *, #20, .T. ) ;
#306 = LINE ( 'NONE', #170, #326 ) ;
#307 = ORIENTED_EDGE ( 'NONE', *, *, #327, .F. ) ;
#308 = EDGE_LOOP ( 'NONE', ( #300, #4, #217, #330 ) ) ;
#309 = CARTESIAN_POINT ( 'NONE',  ( -10.00000000000000000, -10.00000000000000000, 1000.000000000000000 ) ) ;
#310 = CARTESIAN_POINT ( 'NONE',  ( 0.000000000000000000, 0.000000000000000000, 0.000000000000000000 ) ) ;
#311 = DIRECTION ( 'NONE',  ( -1.084202172485504434E-16, 1.000000000000000000, 0.000000000000000000 ) ) ;
#312 = SHAPE_REPRESENTATION_RELATIONSHIP ( 'NONE' , 'NONE' ,  #239, #89 ) ;
#313 = CARTESIAN_POINT ( 'NONE',  ( -10.00000000000000000, 10.00000000000000000, 1000.000000000000000 ) ) ;
#314 = ORIENTED_EDGE ( 'NONE', *, *, #147, .F. ) ;
#315 = CARTESIAN_POINT ( 'NONE',  ( -8.000000000000000000, 8.000000000000000000, 1000.000000000000000 ) ) ;
#316 = AXIS2_PLACEMENT_3D ( 'NONE', #132, #345, #318 ) ;
#317 = CARTESIAN_POINT ( 'NONE',  ( -10.00000000000000000, 10.00000000000000000, 1000.000000000000000 ) ) ;
#318 = DIRECTION ( 'NONE',  ( 1.000000000000000000, 1.084202172485504434E-16, 0.000000000000000000 ) ) ;
#319 = EDGE_CURVE ( 'NONE', #39, #171, #322, .T. ) ;
#320 = LINE ( 'NONE', #235, #44 ) ;
#321 = CARTESIAN_POINT ( 'NONE',  ( 10.00000000000000000, -10.00000000000000000, 1000.000000000000000 ) ) ;
#322 = LINE ( 'NONE', #49, #51 ) ;
#323 = EDGE_LOOP ( 'NONE', ( #314, #81, #25, #86 ) ) ;
#324 = CARTESIAN_POINT ( 'NONE',  ( -10.00000000000000000, -10.00000000000000000, 1000.000000000000000 ) ) ;
#325 = ORIENTED_EDGE ( 'NONE', *, *, #164, .T. ) ;
#326 = VECTOR ( 'NONE', #142, 1000.000000000000000 ) ;
#327 = EDGE_CURVE ( 'NONE', #154, #168, #268, .T. ) ;
#328 = PRODUCT_DEFINITION_SHAPE ( 'NONE', 'NONE',  #337 ) ;
#329 = DIRECTION ( 'NONE',  ( -0.000000000000000000, -1.000000000000000000, -0.000000000000000000 ) ) ;
#330 = ORIENTED_EDGE ( 'NONE', *, *, #61, .T. ) ;
#331 = EDGE_LOOP ( 'NONE', ( #19, #192, #246, #88 ) ) ;
#332 = AXIS2_PLACEMENT_3D ( 'NONE', #286, #121, #129 ) ;
#333 = APPLICATION_PROTOCOL_DEFINITION ( 'draft international standard', 'automotive_design', 1998, #198 ) ;
#334 = CARTESIAN_POINT ( 'NONE',  ( -10.00000000000000000, 10.00000000000000000, 1000.000000000000000 ) ) ;
#335 =( NAMED_UNIT ( * ) PLANE_ANGLE_UNIT ( ) SI_UNIT ( $, .RADIAN. ) );
#336 = ORIENTED_EDGE ( 'NONE', *, *, #304, .F. ) ;
#337 = PRODUCT_DEFINITION ( 'UNKNOWN', '', #45, #291 ) ;
#338 = DIRECTION ( 'NONE',  ( 1.000000000000000000, 0.000000000000000000, 0.000000000000000000 ) ) ;
#339 = AXIS2_PLACEMENT_3D ( 'NONE', #74, #48, #186 ) ;
#340 = CONTEXT_DEPENDENT_SHAPE_REPRESENTATION ( #17, #223 ) ;
#341 = VERTEX_POINT ( 'NONE', #27 ) ;
#342 = EDGE_CURVE ( 'NONE', #154, #261, #270, .T. ) ;
#343 = DIRECTION ( 'NONE',  ( 0.000000000000000000, 1.000000000000000000, 0.000000000000000000 ) ) ;
#344 = VECTOR ( 'NONE', #250, 1000.000000000000000 ) ;
#345 = DIRECTION ( 'NONE',  ( 1.084202172485504434E-16, -1.000000000000000000, 0.000000000000000000 ) ) ;
#346 = DIRECTION ( 'NONE',  ( -1.000000000000000000, -1.084202172485504434E-16, -0.000000000000000000 ) ) ;
#347 = DIRECTION ( 'NONE',  ( -0.000000000000000000, -1.000000000000000000, -0.000000000000000000 ) ) ;
#348 = EDGE_CURVE ( 'NONE', #196, #225, #306, .T. ) ;
#349 = CARTESIAN_POINT ( 'NONE',  ( -8.000000000000000000, -8.000000000000000000, 1000.000000000000000 ) ) ;
#350 = EDGE_CURVE ( 'NONE', #261, #39, #109, .T. ) ;
#351 = CARTESIAN_POINT ( 'NONE',  ( 10.00000000000000000, -10.00000000000000000, 1000.000000000000000 ) ) ;
#352 = VERTEX_POINT ( 'NONE', #247 ) ;
#353 = DIRECTION ( 'NONE',  ( 0.000000000000000000, -0.000000000000000000, 1.000000000000000000 ) ) ;
#354 = EDGE_LOOP ( 'NONE', ( #37, #251, #31, #1 ) ) ;
#355 = VECTOR ( 'NONE', #103, 1000.000000000000000 ) ;
#356 = DIRECTION ( 'NONE',  ( 0.000000000000000000, -1.000000000000000000, 0.000000000000000000 ) ) ;
#357 = EDGE_LOOP ( 'NONE', ( #271, #166, #138, #110 ) ) ;
#358 = CARTESIAN_POINT ( 'NONE',  ( -10.00000000000000000, 10.00000000000000000, 1000.000000000000000 ) ) ;
#359 = ORIENTED_EDGE ( 'NONE', *, *, #226, .F. ) ;
#360 = NEXT_ASSEMBLY_USAGE_OCCURRENCE ( 'NAUO1', ' ', ' ', #337, #212, $ ) ;
ENDSEC;
END-ISO-10303-21;
