ISO-10303-21;
HEADER;
FILE_DESCRIPTION (( 'STEP AP214' ),
    '1' );
FILE_NAME ('Ñáîðêà1.STEP',
    '2024-12-04T14:45:14',
    ( '' ),
    ( '' ),
    'SwSTEP 2.0',
    'SolidWorks 2024',
    '' );
FILE_SCHEMA (( 'AUTOMOTIVE_DESIGN' ));
ENDSEC;

DATA;
#1 = ADVANCED_BREP_SHAPE_REPRESENTATION ( '', ( #115, #172 ), #56 ) ;
#2 = DIRECTION ( 'NONE',  ( 0.000000000000000000, 0.000000000000000000, -1.000000000000000000 ) ) ;
#3 = CARTESIAN_POINT ( 'NONE',  ( -15.00000000000000000, -1.500000000000000000, 1000.000000000000000 ) ) ;
#4 = VECTOR ( 'NONE', #145, 1000.000000000000000 ) ;
#5 = LINE ( 'NONE', #8, #4 ) ;
#6 = DIRECTION ( 'NONE',  ( -0.000000000000000000, -0.000000000000000000, -1.000000000000000000 ) ) ;
#7 = PLANE ( 'NONE',  #85 ) ;
#8 = CARTESIAN_POINT ( 'NONE',  ( 15.00000000000000000, -1.500000000000000000, 1000.000000000000000 ) ) ;
#9 = VECTOR ( 'NONE', #148, 1000.000000000000000 ) ;
#10 = CARTESIAN_POINT ( 'NONE',  ( -15.00000000000000000, -1.500000000000000000, 1000.000000000000000 ) ) ;
#11 = PRODUCT ( '\X2\04210431043e0440043a0430\X0\1', '\X2\04210431043e0440043a0430\X0\1', '', ( #156 ) ) ;
#12 =( GEOMETRIC_REPRESENTATION_CONTEXT ( 3 ) GLOBAL_UNCERTAINTY_ASSIGNED_CONTEXT ( ( #150 ) ) GLOBAL_UNIT_ASSIGNED_CONTEXT ( ( #83, #218, #25 ) ) REPRESENTATION_CONTEXT ( 'NONE', 'WORKASPACE' ) );
#13 = PRODUCT_DEFINITION_FORMATION_WITH_SPECIFIED_SOURCE ( 'ANY', '', #132, .NOT_KNOWN. ) ;
#14 =( NAMED_UNIT ( * ) SI_UNIT ( $, .STERADIAN. ) SOLID_ANGLE_UNIT ( ) );
#15 = LINE ( 'NONE', #219, #28 ) ;
#16 = ORIENTED_EDGE ( 'NONE', *, *, #197, .T. ) ;
#17 = EDGE_CURVE ( 'NONE', #175, #37, #107, .T. ) ;
#18 = ORIENTED_EDGE ( 'NONE', *, *, #92, .T. ) ;
#19 = CARTESIAN_POINT ( 'NONE',  ( 15.00000000000000000, 1.500000000000000000, 0.000000000000000000 ) ) ;
#20 = APPLICATION_PROTOCOL_DEFINITION ( 'draft international standard', 'automotive_design', 1998, #47 ) ;
#21 = ORIENTED_EDGE ( 'NONE', *, *, #33, .F. ) ;
#22 = DIRECTION ( 'NONE',  ( 0.000000000000000000, -0.000000000000000000, 1.000000000000000000 ) ) ;
#23 = CARTESIAN_POINT ( 'NONE',  ( -15.00000000000000000, 1.500000000000000000, 1000.000000000000000 ) ) ;
#24 = ADVANCED_FACE ( 'NONE', ( #159 ), #110, .F. ) ;
#25 =( NAMED_UNIT ( * ) SI_UNIT ( $, .STERADIAN. ) SOLID_ANGLE_UNIT ( ) );
#26 = APPLICATION_CONTEXT ( 'automotive_design' ) ;
#27 = CARTESIAN_POINT ( 'NONE',  ( 15.00000000000000000, -1.500000000000000000, 0.000000000000000000 ) ) ;
#28 = VECTOR ( 'NONE', #202, 1000.000000000000000 ) ;
#29 = DIRECTION ( 'NONE',  ( 0.000000000000000000, 0.000000000000000000, 1.000000000000000000 ) ) ;
#30 =( LENGTH_UNIT ( ) NAMED_UNIT ( * ) SI_UNIT ( .MILLI., .METRE. ) );
#31 = AXIS2_PLACEMENT_3D ( 'NONE', #161, #60, #84 ) ;
#32 = AXIS2_PLACEMENT_3D ( 'NONE', #64, #29, #133 ) ;
#33 = EDGE_CURVE ( 'NONE', #59, #209, #36, .T. ) ;
#34 = ORIENTED_EDGE ( 'NONE', *, *, #104, .F. ) ;
#35 = PRODUCT_DEFINITION ( 'UNKNOWN', '', #94, #220 ) ;
#36 = LINE ( 'NONE', #3, #62 ) ;
#37 = VERTEX_POINT ( 'NONE', #19 ) ;
#38 = VECTOR ( 'NONE', #53, 1000.000000000000000 ) ;
#39 = ORIENTED_EDGE ( 'NONE', *, *, #174, .T. ) ;
#40 = DIRECTION ( 'NONE',  ( -1.000000000000000000, 0.000000000000000000, 0.000000000000000000 ) ) ;
#41 = CARTESIAN_POINT ( 'NONE',  ( -15.00000000000000000, -1.500000000000000000, 1000.000000000000000 ) ) ;
#42 = VECTOR ( 'NONE', #6, 1000.000000000000000 ) ;
#43 = DIRECTION ( 'NONE',  ( 0.000000000000000000, 0.000000000000000000, -1.000000000000000000 ) ) ;
#44 = SHAPE_REPRESENTATION ( '\X2\04210431043e0440043a0430\X0\1', ( #32, #188 ), #164 ) ;
#45 = DIRECTION ( 'NONE',  ( 1.000000000000000000, 0.000000000000000000, 0.000000000000000000 ) ) ;
#46 = CARTESIAN_POINT ( 'NONE',  ( -15.00000000000000000, -1.500000000000000000, 0.000000000000000000 ) ) ;
#47 = APPLICATION_CONTEXT ( 'automotive_design' ) ;
#48 = AXIS2_PLACEMENT_3D ( 'NONE', #193, #2, #75 ) ;
#49 = SHAPE_REPRESENTATION_RELATIONSHIP ( 'NONE' , 'NONE' ,  #177, #1 ) ;
#50 = DIRECTION ( 'NONE',  ( 1.000000000000000000, 0.000000000000000000, 0.000000000000000000 ) ) ;
#51 = EDGE_CURVE ( 'NONE', #59, #158, #179, .T. ) ;
#52 =( NAMED_UNIT ( * ) PLANE_ANGLE_UNIT ( ) SI_UNIT ( $, .RADIAN. ) );
#53 = DIRECTION ( 'NONE',  ( -1.000000000000000000, -0.000000000000000000, -0.000000000000000000 ) ) ;
#54 = ADVANCED_FACE ( 'NONE', ( #57 ), #194, .T. ) ;
#55 = VERTEX_POINT ( 'NONE', #99 ) ;
#56 =( GEOMETRIC_REPRESENTATION_CONTEXT ( 3 ) GLOBAL_UNCERTAINTY_ASSIGNED_CONTEXT ( ( #207 ) ) GLOBAL_UNIT_ASSIGNED_CONTEXT ( ( #30, #52, #131 ) ) REPRESENTATION_CONTEXT ( 'NONE', 'WORKASPACE' ) );
#57 = FACE_OUTER_BOUND ( 'NONE', #124, .T. ) ;
#58 = APPLICATION_CONTEXT ( 'automotive_design' ) ;
#59 = VERTEX_POINT ( 'NONE', #167 ) ;
#60 = DIRECTION ( 'NONE',  ( 0.000000000000000000, 0.000000000000000000, -1.000000000000000000 ) ) ;
#61 = CARTESIAN_POINT ( 'NONE',  ( 15.00000000000000000, -1.500000000000000000, 1000.000000000000000 ) ) ;
#62 = VECTOR ( 'NONE', #212, 1000.000000000000000 ) ;
#63 = LINE ( 'NONE', #130, #98 ) ;
#64 = CARTESIAN_POINT ( 'NONE',  ( 0.000000000000000000, 0.000000000000000000, 0.000000000000000000 ) ) ;
#65 = UNCERTAINTY_MEASURE_WITH_UNIT (LENGTH_MEASURE( 1.000000000000000082E-05 ), #189, 'distance_accuracy_value', 'NONE');
#66 = LINE ( 'NONE', #151, #38 ) ;
#67 = SHAPE_DEFINITION_REPRESENTATION ( #101, #177 ) ;
#68 = MECHANICAL_DESIGN_GEOMETRIC_PRESENTATION_REPRESENTATION (  '', ( #204 ), #12 ) ;
#69 = ADVANCED_FACE ( 'NONE', ( #165 ), #7, .F. ) ;
#70 = ORIENTED_EDGE ( 'NONE', *, *, #127, .T. ) ;
#71 = ORIENTED_EDGE ( 'NONE', *, *, #104, .T. ) ;
#72 = VECTOR ( 'NONE', #208, 1000.000000000000000 ) ;
#73 = ADVANCED_FACE ( 'NONE', ( #149 ), #79, .F. ) ;
#74 = ORIENTED_EDGE ( 'NONE', *, *, #51, .F. ) ;
#75 = DIRECTION ( 'NONE',  ( -1.000000000000000000, 0.000000000000000000, -0.000000000000000000 ) ) ;
#76 = CLOSED_SHELL ( 'NONE', ( #73, #169, #69, #157, #24, #54 ) ) ;
#77 = SURFACE_STYLE_FILL_AREA ( #170 ) ;
#78 = EDGE_CURVE ( 'NONE', #158, #106, #5, .T. ) ;
#79 = PLANE ( 'NONE',  #152 ) ;
#80 = CARTESIAN_POINT ( 'NONE',  ( 15.00000000000000000, 1.500000000000000000, 1000.000000000000000 ) ) ;
#81 = PRODUCT_DEFINITION ( 'UNKNOWN', '', #13, #154 ) ;
#82 = PRESENTATION_LAYER_ASSIGNMENT (  '', '', ( #204 ) ) ;
#83 =( LENGTH_UNIT ( ) NAMED_UNIT ( * ) SI_UNIT ( .MILLI., .METRE. ) );
#84 = DIRECTION ( 'NONE',  ( -1.000000000000000000, 0.000000000000000000, -0.000000000000000000 ) ) ;
#85 = AXIS2_PLACEMENT_3D ( 'NONE', #10, #45, #43 ) ;
#86 = APPLICATION_PROTOCOL_DEFINITION ( 'draft international standard', 'automotive_design', 1998, #183 ) ;
#87 = ORIENTED_EDGE ( 'NONE', *, *, #127, .F. ) ;
#88 = CARTESIAN_POINT ( 'NONE',  ( 0.000000000000000000, 0.000000000000000000, 0.000000000000000000 ) ) ;
#89 = ORIENTED_EDGE ( 'NONE', *, *, #51, .T. ) ;
#90 = CARTESIAN_POINT ( 'NONE',  ( 15.00000000000000000, -1.500000000000000000, 0.000000000000000000 ) ) ;
#91 = CARTESIAN_POINT ( 'NONE',  ( -15.00000000000000000, -1.500000000000000000, 1000.000000000000000 ) ) ;
#92 = EDGE_CURVE ( 'NONE', #55, #59, #63, .T. ) ;
#93 = EDGE_LOOP ( 'NONE', ( #123, #176, #144, #16 ) ) ;
#94 = PRODUCT_DEFINITION_FORMATION_WITH_SPECIFIED_SOURCE ( 'ANY', '', #11, .NOT_KNOWN. ) ;
#95 = CARTESIAN_POINT ( 'NONE',  ( 15.00000000000000000, 1.500000000000000000, 1000.000000000000000 ) ) ;
#96 = SURFACE_STYLE_USAGE ( .BOTH. , #147 ) ;
#97 = PRODUCT_DEFINITION_SHAPE ( 'NONE', 'NONE',  #35 ) ;
#98 = VECTOR ( 'NONE', #214, 1000.000000000000000 ) ;
#99 = CARTESIAN_POINT ( 'NONE',  ( -15.00000000000000000, 1.500000000000000000, 1000.000000000000000 ) ) ;
#100 = CARTESIAN_POINT ( 'NONE',  ( 0.000000000000000000, 0.000000000000000000, 0.000000000000000000 ) ) ;
#101 = PRODUCT_DEFINITION_SHAPE ( 'NONE', 'NONE',  #81 ) ;
#102 = CARTESIAN_POINT ( 'NONE',  ( 15.00000000000000000, -1.500000000000000000, 1000.000000000000000 ) ) ;
#103 = AXIS2_PLACEMENT_3D ( 'NONE', #88, #117, #135 ) ;
#104 = EDGE_CURVE ( 'NONE', #209, #175, #198, .T. ) ;
#105 = DIRECTION ( 'NONE',  ( 0.000000000000000000, 0.000000000000000000, 1.000000000000000000 ) ) ;
#106 = VERTEX_POINT ( 'NONE', #95 ) ;
#107 = LINE ( 'NONE', #90, #119 ) ;
#108 = EDGE_LOOP ( 'NONE', ( #71, #192, #74, #162 ) ) ;
#109 = ORIENTED_EDGE ( 'NONE', *, *, #92, .F. ) ;
#110 = PLANE ( 'NONE',  #48 ) ;
#111 = LINE ( 'NONE', #163, #211 ) ;
#112 = FACE_OUTER_BOUND ( 'NONE', #134, .T. ) ;
#113 = PRODUCT_DEFINITION_SHAPE ( 'NONE', 'NONE',  #224 ) ;
#114 = LINE ( 'NONE', #80, #42 ) ;
#115 = MANIFOLD_SOLID_BREP ( '\X2\0411043e0431044b0448043a0430\X0\-\X2\0412044b0442044f043d04430442044c\X0\1', #76 ) ;
#116 = VECTOR ( 'NONE', #203, 1000.000000000000000 ) ;
#117 = DIRECTION ( 'NONE',  ( 0.000000000000000000, 0.000000000000000000, 1.000000000000000000 ) ) ;
#118 = DIRECTION ( 'NONE',  ( 1.000000000000000000, 0.000000000000000000, 0.000000000000000000 ) ) ;
#119 = VECTOR ( 'NONE', #178, 1000.000000000000000 ) ;
#120 = DIRECTION ( 'NONE',  ( 0.000000000000000000, 0.000000000000000000, 1.000000000000000000 ) ) ;
#121 = CARTESIAN_POINT ( 'NONE',  ( 996.7489301358025386, 1006.409766940549389, 496.8423446063967504 ) ) ;
#122 = CONTEXT_DEPENDENT_SHAPE_REPRESENTATION ( #171, #113 ) ;
#123 = ORIENTED_EDGE ( 'NONE', *, *, #17, .T. ) ;
#124 = EDGE_LOOP ( 'NONE', ( #180, #34, #155, #138 ) ) ;
#125 = VERTEX_POINT ( 'NONE', #196 ) ;
#126 = ORIENTED_EDGE ( 'NONE', *, *, #142, .T. ) ;
#127 = EDGE_CURVE ( 'NONE', #55, #125, #111, .T. ) ;
#128 = CARTESIAN_POINT ( 'NONE',  ( 15.00000000000000000, -1.500000000000000000, 1000.000000000000000 ) ) ;
#129 = DIRECTION ( 'NONE',  ( 0.000000000000000000, -1.000000000000000000, 0.000000000000000000 ) ) ;
#130 = CARTESIAN_POINT ( 'NONE',  ( -15.00000000000000000, -1.500000000000000000, 1000.000000000000000 ) ) ;
#131 =( NAMED_UNIT ( * ) SI_UNIT ( $, .STERADIAN. ) SOLID_ANGLE_UNIT ( ) );
#132 = PRODUCT ( 'SH30S3 \X2\0410043b044e043c0438043d0438043504320430044f\X0\ \X2\043f043e043b043e04410430\X0\ \X2\04100414\X0\31\X2\0422\X0\ 30\X2\0445\X0\3 (\X2\041104350437\X0\ \X2\043f043e043a0440044b04420438044f\X0\)_30\X2\0445\X0\3', 'SH30S3 \X2\0410043b044e043c0438043d0438043504320430044f\X0\ \X2\043f043e043b043e04410430\X0\ \X2\04100414\X0\31\X2\0422\X0\ 30\X2\0445\X0\3 (\X2\041104350437\X0\ \X2\043f043e043a0440044b04420438044f\X0\)_30\X2\0445\X0\3', '', ( #153 ) ) ;
#133 = DIRECTION ( 'NONE',  ( 1.000000000000000000, 0.000000000000000000, 0.000000000000000000 ) ) ;
#134 = EDGE_LOOP ( 'NONE', ( #160, #87, #141, #126 ) ) ;
#135 = DIRECTION ( 'NONE',  ( 1.000000000000000000, 0.000000000000000000, 0.000000000000000000 ) ) ;
#136 = VECTOR ( 'NONE', #186, 1000.000000000000000 ) ;
#137 = SHAPE_DEFINITION_REPRESENTATION ( #97, #44 ) ;
#138 = ORIENTED_EDGE ( 'NONE', *, *, #213, .F. ) ;
#139 = ORIENTED_EDGE ( 'NONE', *, *, #206, .T. ) ;
#140 = EDGE_LOOP ( 'NONE', ( #39, #21, #109, #70 ) ) ;
#141 = ORIENTED_EDGE ( 'NONE', *, *, #206, .F. ) ;
#142 = EDGE_CURVE ( 'NONE', #106, #37, #114, .T. ) ;
#143 = ORIENTED_EDGE ( 'NONE', *, *, #78, .T. ) ;
#144 = ORIENTED_EDGE ( 'NONE', *, *, #78, .F. ) ;
#145 = DIRECTION ( 'NONE',  ( 0.000000000000000000, 1.000000000000000000, 0.000000000000000000 ) ) ;
#146 = PLANE ( 'NONE',  #187 ) ;
#147 = SURFACE_SIDE_STYLE ('',( #77 ) ) ;
#148 = DIRECTION ( 'NONE',  ( 1.000000000000000000, 0.000000000000000000, 0.000000000000000000 ) ) ;
#149 = FACE_OUTER_BOUND ( 'NONE', #93, .T. ) ;
#150 = UNCERTAINTY_MEASURE_WITH_UNIT (LENGTH_MEASURE( 1.000000000000000082E-05 ), #83, 'distance_accuracy_value', 'NONE');
#151 = CARTESIAN_POINT ( 'NONE',  ( -15.00000000000000000, 1.500000000000000000, 1000.000000000000000 ) ) ;
#152 = AXIS2_PLACEMENT_3D ( 'NONE', #128, #40, #200 ) ;
#153 = PRODUCT_CONTEXT ( 'NONE', #58, 'mechanical' ) ;
#154 = PRODUCT_DEFINITION_CONTEXT ( 'detailed design', #26, 'design' ) ;
#155 = ORIENTED_EDGE ( 'NONE', *, *, #174, .F. ) ;
#156 = PRODUCT_CONTEXT ( 'NONE', #47, 'mechanical' ) ;
#157 = ADVANCED_FACE ( 'NONE', ( #168 ), #146, .F. ) ;
#158 = VERTEX_POINT ( 'NONE', #61 ) ;
#159 = FACE_OUTER_BOUND ( 'NONE', #195, .T. ) ;
#160 = ORIENTED_EDGE ( 'NONE', *, *, #213, .T. ) ;
#161 = CARTESIAN_POINT ( 'NONE',  ( 0.000000000000000000, 0.000000000000000000, 0.000000000000000000 ) ) ;
#162 = ORIENTED_EDGE ( 'NONE', *, *, #33, .T. ) ;
#163 = CARTESIAN_POINT ( 'NONE',  ( -15.00000000000000000, 1.500000000000000000, 1000.000000000000000 ) ) ;
#164 =( GEOMETRIC_REPRESENTATION_CONTEXT ( 3 ) GLOBAL_UNCERTAINTY_ASSIGNED_CONTEXT ( ( #65 ) ) GLOBAL_UNIT_ASSIGNED_CONTEXT ( ( #189, #205, #14 ) ) REPRESENTATION_CONTEXT ( 'NONE', 'WORKASPACE' ) );
#165 = FACE_OUTER_BOUND ( 'NONE', #140, .T. ) ;
#166 = PRODUCT_RELATED_PRODUCT_CATEGORY ( 'part', '', ( #11 ) ) ;
#167 = CARTESIAN_POINT ( 'NONE',  ( -15.00000000000000000, -1.500000000000000000, 1000.000000000000000 ) ) ;
#168 = FACE_OUTER_BOUND ( 'NONE', #108, .T. ) ;
#169 = ADVANCED_FACE ( 'NONE', ( #112 ), #217, .F. ) ;
#170 = FILL_AREA_STYLE ('',( #182 ) ) ;
#171 =( REPRESENTATION_RELATIONSHIP ('NONE','NONE', #44, #177 ) REPRESENTATION_RELATIONSHIP_WITH_TRANSFORMATION ( #222 )SHAPE_REPRESENTATION_RELATIONSHIP( ) );
#172 = AXIS2_PLACEMENT_3D ( 'NONE', #100, #120, #118 ) ;
#173 = CARTESIAN_POINT ( 'NONE',  ( -15.00000000000000000, -1.500000000000000000, 0.000000000000000000 ) ) ;
#174 = EDGE_CURVE ( 'NONE', #125, #209, #216, .T. ) ;
#175 = VERTEX_POINT ( 'NONE', #27 ) ;
#176 = ORIENTED_EDGE ( 'NONE', *, *, #142, .F. ) ;
#177 = SHAPE_REPRESENTATION ( 'SH30S3 \X2\0410043b044e043c0438043d0438043504320430044f\X0\ \X2\043f043e043b043e04410430\X0\ \X2\04100414\X0\31\X2\0422\X0\ 30\X2\0445\X0\3 (\X2\041104350437\X0\ \X2\043f043e043a0440044b04420438044f\X0\)_30\X2\0445\X0\3', ( #172 ), #56 ) ;
#178 = DIRECTION ( 'NONE',  ( 0.000000000000000000, 1.000000000000000000, 0.000000000000000000 ) ) ;
#179 = LINE ( 'NONE', #91, #72 ) ;
#180 = ORIENTED_EDGE ( 'NONE', *, *, #17, .F. ) ;
#181 = DIRECTION ( 'NONE',  ( -0.000000000000000000, -0.000000000000000000, -1.000000000000000000 ) ) ;
#182 = FILL_AREA_STYLE_COLOUR ( '', #210 ) ;
#183 = APPLICATION_CONTEXT ( 'automotive_design' ) ;
#184 = DIRECTION ( 'NONE',  ( 0.000000000000000000, 1.000000000000000000, 0.000000000000000000 ) ) ;
#185 = PRESENTATION_STYLE_ASSIGNMENT (( #96 ) ) ;
#186 = DIRECTION ( 'NONE',  ( -0.000000000000000000, -1.000000000000000000, -0.000000000000000000 ) ) ;
#187 = AXIS2_PLACEMENT_3D ( 'NONE', #41, #184, #22 ) ;
#188 = AXIS2_PLACEMENT_3D ( 'NONE', #121, #105, #50 ) ;
#189 =( LENGTH_UNIT ( ) NAMED_UNIT ( * ) SI_UNIT ( .MILLI., .METRE. ) );
#190 = APPLICATION_PROTOCOL_DEFINITION ( 'draft international standard', 'automotive_design', 1998, #26 ) ;
#191 = LINE ( 'NONE', #102, #116 ) ;
#192 = ORIENTED_EDGE ( 'NONE', *, *, #197, .F. ) ;
#193 = CARTESIAN_POINT ( 'NONE',  ( 0.000000000000000000, 0.000000000000000000, 1000.000000000000000 ) ) ;
#194 = PLANE ( 'NONE',  #31 ) ;
#195 = EDGE_LOOP ( 'NONE', ( #143, #139, #18, #89 ) ) ;
#196 = CARTESIAN_POINT ( 'NONE',  ( -15.00000000000000000, 1.500000000000000000, 0.000000000000000000 ) ) ;
#197 = EDGE_CURVE ( 'NONE', #158, #175, #191, .T. ) ;
#198 = LINE ( 'NONE', #215, #9 ) ;
#199 = AXIS2_PLACEMENT_3D ( 'NONE', #23, #129, #201 ) ;
#200 = DIRECTION ( 'NONE',  ( 0.000000000000000000, 0.000000000000000000, 1.000000000000000000 ) ) ;
#201 = DIRECTION ( 'NONE',  ( 0.000000000000000000, -0.000000000000000000, -1.000000000000000000 ) ) ;
#202 = DIRECTION ( 'NONE',  ( -1.000000000000000000, -0.000000000000000000, -0.000000000000000000 ) ) ;
#203 = DIRECTION ( 'NONE',  ( -0.000000000000000000, -0.000000000000000000, -1.000000000000000000 ) ) ;
#204 = STYLED_ITEM ( 'NONE', ( #185 ), #115 ) ;
#205 =( NAMED_UNIT ( * ) PLANE_ANGLE_UNIT ( ) SI_UNIT ( $, .RADIAN. ) );
#206 = EDGE_CURVE ( 'NONE', #106, #55, #66, .T. ) ;
#207 = UNCERTAINTY_MEASURE_WITH_UNIT (LENGTH_MEASURE( 1.000000000000000082E-05 ), #30, 'distance_accuracy_value', 'NONE');
#208 = DIRECTION ( 'NONE',  ( 1.000000000000000000, 0.000000000000000000, 0.000000000000000000 ) ) ;
#209 = VERTEX_POINT ( 'NONE', #173 ) ;
#210 = COLOUR_RGB ( '',0.7921568627450980005, 0.8196078431372548767, 0.9333333333333333481 ) ;
#211 = VECTOR ( 'NONE', #181, 1000.000000000000000 ) ;
#212 = DIRECTION ( 'NONE',  ( -0.000000000000000000, -0.000000000000000000, -1.000000000000000000 ) ) ;
#213 = EDGE_CURVE ( 'NONE', #37, #125, #15, .T. ) ;
#214 = DIRECTION ( 'NONE',  ( -0.000000000000000000, -1.000000000000000000, -0.000000000000000000 ) ) ;
#215 = CARTESIAN_POINT ( 'NONE',  ( -15.00000000000000000, -1.500000000000000000, 0.000000000000000000 ) ) ;
#216 = LINE ( 'NONE', #46, #136 ) ;
#217 = PLANE ( 'NONE',  #199 ) ;
#218 =( NAMED_UNIT ( * ) PLANE_ANGLE_UNIT ( ) SI_UNIT ( $, .RADIAN. ) );
#219 = CARTESIAN_POINT ( 'NONE',  ( -15.00000000000000000, 1.500000000000000000, 0.000000000000000000 ) ) ;
#220 = PRODUCT_DEFINITION_CONTEXT ( 'detailed design', #183, 'design' ) ;
#221 = PRODUCT_RELATED_PRODUCT_CATEGORY ( 'part', '', ( #132 ) ) ;
#222 = ITEM_DEFINED_TRANSFORMATION ( 'NONE', 'NONE', #188,  #172 ) ;
#223 = APPLICATION_PROTOCOL_DEFINITION ( 'draft international standard', 'automotive_design', 1998, #58 ) ;
#224 = NEXT_ASSEMBLY_USAGE_OCCURRENCE ( 'NAUO1', ' ', ' ', #35, #81, $ ) ;
ENDSEC;
END-ISO-10303-21;
