ISO-10303-21;
HEADER;
FILE_DESCRIPTION (( 'STEP AP214' ),
    '1' );
FILE_NAME ('PS20S1.5X Ïðîôèëü àëþìèíèåâûé, êâàäðàò 20x20x1,5 (Áåç ïîêðûòèÿ).STEP',
    '2025-02-18T06:58:35',
    ( '' ),
    ( '' ),
    'SwSTEP 2.0',
    'SolidWorks 2024',
    '' );
FILE_SCHEMA (( 'AUTOMOTIVE_DESIGN' ));
ENDSEC;

DATA;
#1 = CARTESIAN_POINT ( 'NONE',  ( 10.00000000000000000, -10.00000000000000000, 0.000000000000000000 ) ) ;
#2 = AXIS2_PLACEMENT_3D ( 'NONE', #264, #137, #188 ) ;
#3 = DIRECTION ( 'NONE',  ( -1.000000000000000000, -0.000000000000000000, -0.000000000000000000 ) ) ;
#4 = DIRECTION ( 'NONE',  ( -0.000000000000000000, -1.000000000000000000, -0.000000000000000000 ) ) ;
#5 = FACE_OUTER_BOUND ( 'NONE', #266, .T. ) ;
#6 = COLOUR_RGB ( '',0.8666666666666666963, 0.9098039215686274384, 1.000000000000000000 ) ;
#7 = EDGE_LOOP ( 'NONE', ( #260, #56, #35, #10 ) ) ;
#8 = EDGE_CURVE ( 'NONE', #229, #289, #145, .T. ) ;
#9 = ADVANCED_FACE ( 'NONE', ( #223 ), #247, .F. ) ;
#10 = ORIENTED_EDGE ( 'NONE', *, *, #323, .T. ) ;
#11 = VECTOR ( 'NONE', #21, 1000.000000000000000 ) ;
#12 = VECTOR ( 'NONE', #282, 1000.000000000000000 ) ;
#13 = VERTEX_POINT ( 'NONE', #170 ) ;
#14 = DIRECTION ( 'NONE',  ( 1.000000000000000000, 0.000000000000000000, 0.000000000000000000 ) ) ;
#15 = ORIENTED_EDGE ( 'NONE', *, *, #79, .T. ) ;
#16 = ORIENTED_EDGE ( 'NONE', *, *, #288, .T. ) ;
#17 = CARTESIAN_POINT ( 'NONE',  ( 8.500000000000003553, 8.500000000000000000, 1000.000000000000000 ) ) ;
#18 = LINE ( 'NONE', #155, #205 ) ;
#19 = ORIENTED_EDGE ( 'NONE', *, *, #227, .F. ) ;
#20 = STYLED_ITEM ( 'NONE', ( #174 ), #60 ) ;
#21 = DIRECTION ( 'NONE',  ( 0.000000000000000000, 1.000000000000000000, 0.000000000000000000 ) ) ;
#22 = CARTESIAN_POINT ( 'NONE',  ( 0.000000000000000000, 0.000000000000000000, 0.000000000000000000 ) ) ;
#23 = PLANE ( 'NONE',  #100 ) ;
#24 = DIRECTION ( 'NONE',  ( 0.000000000000000000, -0.000000000000000000, -1.000000000000000000 ) ) ;
#25 = LINE ( 'NONE', #1, #30 ) ;
#26 = LINE ( 'NONE', #221, #146 ) ;
#27 = LINE ( 'NONE', #197, #248 ) ;
#28 = DIRECTION ( 'NONE',  ( 1.000000000000000000, 0.000000000000000000, 0.000000000000000000 ) ) ;
#29 = CARTESIAN_POINT ( 'NONE',  ( -8.500000000000000000, -8.500000000000000000, 1000.000000000000000 ) ) ;
#30 = VECTOR ( 'NONE', #273, 1000.000000000000000 ) ;
#31 = EDGE_CURVE ( 'NONE', #310, #153, #276, .T. ) ;
#32 = VERTEX_POINT ( 'NONE', #51 ) ;
#33 = ORIENTED_EDGE ( 'NONE', *, *, #8, .T. ) ;
#34 = SHAPE_DEFINITION_REPRESENTATION ( #70, #209 ) ;
#35 = ORIENTED_EDGE ( 'NONE', *, *, #190, .F. ) ;
#36 = VECTOR ( 'NONE', #28, 1000.000000000000000 ) ;
#37 = ORIENTED_EDGE ( 'NONE', *, *, #48, .F. ) ;
#38 = ORIENTED_EDGE ( 'NONE', *, *, #227, .T. ) ;
#39 = CARTESIAN_POINT ( 'NONE',  ( -8.500000000000000000, -8.500000000000000000, 1000.000000000000000 ) ) ;
#40 = CARTESIAN_POINT ( 'NONE',  ( 10.00000000000000000, 10.00000000000000000, 1000.000000000000000 ) ) ;
#41 = ORIENTED_EDGE ( 'NONE', *, *, #258, .T. ) ;
#42 = PLANE ( 'NONE',  #308 ) ;
#43 = EDGE_CURVE ( 'NONE', #129, #102, #27, .T. ) ;
#44 = PRESENTATION_LAYER_ASSIGNMENT (  '', '', ( #20 ) ) ;
#45 = DIRECTION ( 'NONE',  ( 0.000000000000000000, 0.000000000000000000, -1.000000000000000000 ) ) ;
#46 = PLANE ( 'NONE',  #71 ) ;
#47 = LINE ( 'NONE', #244, #254 ) ;
#48 = EDGE_CURVE ( 'NONE', #289, #310, #26, .T. ) ;
#49 = FACE_BOUND ( 'NONE', #187, .T. ) ;
#50 = CARTESIAN_POINT ( 'NONE',  ( -8.500000000000000000, -8.500000000000000000, 0.000000000000000000 ) ) ;
#51 = CARTESIAN_POINT ( 'NONE',  ( 8.500000000000003553, 8.500000000000000000, 0.000000000000000000 ) ) ;
#52 = DIRECTION ( 'NONE',  ( -0.000000000000000000, -0.000000000000000000, -1.000000000000000000 ) ) ;
#53 =( LENGTH_UNIT ( ) NAMED_UNIT ( * ) SI_UNIT ( .MILLI., .METRE. ) );
#54 = AXIS2_PLACEMENT_3D ( 'NONE', #22, #115, #312 ) ;
#55 = ADVANCED_FACE ( 'NONE', ( #274, #49 ), #97, .F. ) ;
#56 = ORIENTED_EDGE ( 'NONE', *, *, #265, .F. ) ;
#57 = AXIS2_PLACEMENT_3D ( 'NONE', #295, #183, #198 ) ;
#58 = CARTESIAN_POINT ( 'NONE',  ( -8.500000000000000000, 8.500000000000000000, 0.000000000000000000 ) ) ;
#59 = ORIENTED_EDGE ( 'NONE', *, *, #239, .T. ) ;
#60 = MANIFOLD_SOLID_BREP ( '\X2\0411043e0431044b0448043a0430\X0\-\X2\0412044b0442044f043d04430442044c\X0\1', #101 ) ;
#61 = EDGE_LOOP ( 'NONE', ( #113, #314, #157, #59 ) ) ;
#62 = ORIENTED_EDGE ( 'NONE', *, *, #80, .F. ) ;
#63 = CARTESIAN_POINT ( 'NONE',  ( -8.500000000000000000, -8.500000000000000000, 0.000000000000000000 ) ) ;
#64 = CARTESIAN_POINT ( 'NONE',  ( -10.00000000000000000, 10.00000000000000000, 1000.000000000000000 ) ) ;
#65 = ORIENTED_EDGE ( 'NONE', *, *, #252, .T. ) ;
#66 = DIRECTION ( 'NONE',  ( 0.000000000000000000, 0.000000000000000000, -1.000000000000000000 ) ) ;
#67 = CARTESIAN_POINT ( 'NONE',  ( -10.00000000000000000, -10.00000000000000000, 0.000000000000000000 ) ) ;
#68 = EDGE_CURVE ( 'NONE', #263, #134, #99, .T. ) ;
#69 = DIRECTION ( 'NONE',  ( -0.000000000000000000, -1.000000000000000000, -0.000000000000000000 ) ) ;
#70 = PRODUCT_DEFINITION_SHAPE ( 'NONE', 'NONE',  #307 ) ;
#71 = AXIS2_PLACEMENT_3D ( 'NONE', #270, #143, #220 ) ;
#72 = DIRECTION ( 'NONE',  ( 0.000000000000000000, 1.000000000000000000, 0.000000000000000000 ) ) ;
#73 = DIRECTION ( 'NONE',  ( -0.000000000000000000, -0.000000000000000000, -1.000000000000000000 ) ) ;
#74 = DIRECTION ( 'NONE',  ( -1.000000000000000000, 0.000000000000000000, 0.000000000000000000 ) ) ;
#75 = CARTESIAN_POINT ( 'NONE',  ( -8.500000000000000000, -8.500000000000000000, 1000.000000000000000 ) ) ;
#76 = DIRECTION ( 'NONE',  ( -1.000000000000000000, 0.000000000000000000, -0.000000000000000000 ) ) ;
#77 = CARTESIAN_POINT ( 'NONE',  ( -8.500000000000000000, 8.500000000000000000, 1000.000000000000000 ) ) ;
#78 = FILL_AREA_STYLE ('',( #300 ) ) ;
#79 = EDGE_CURVE ( 'NONE', #313, #156, #301, .T. ) ;
#80 = EDGE_CURVE ( 'NONE', #102, #313, #225, .T. ) ;
#81 = VECTOR ( 'NONE', #160, 1000.000000000000000 ) ;
#82 = ORIENTED_EDGE ( 'NONE', *, *, #8, .F. ) ;
#83 = CARTESIAN_POINT ( 'NONE',  ( -8.500000000000000000, -8.500000000000000000, 1000.000000000000000 ) ) ;
#84 = EDGE_CURVE ( 'NONE', #156, #235, #199, .T. ) ;
#85 = EDGE_LOOP ( 'NONE', ( #33, #216, #207, #136 ) ) ;
#86 = ORIENTED_EDGE ( 'NONE', *, *, #79, .F. ) ;
#87 = ORIENTED_EDGE ( 'NONE', *, *, #288, .F. ) ;
#88 = VERTEX_POINT ( 'NONE', #144 ) ;
#89 = PLANE ( 'NONE',  #2 ) ;
#90 = DIRECTION ( 'NONE',  ( -1.000000000000000000, -0.000000000000000000, -0.000000000000000000 ) ) ;
#91 = ORIENTED_EDGE ( 'NONE', *, *, #258, .F. ) ;
#92 = FACE_OUTER_BOUND ( 'NONE', #107, .T. ) ;
#93 = DIRECTION ( 'NONE',  ( 0.000000000000000000, -1.000000000000000000, 0.000000000000000000 ) ) ;
#94 = DIRECTION ( 'NONE',  ( -0.000000000000000000, -0.000000000000000000, -1.000000000000000000 ) ) ;
#95 = FACE_OUTER_BOUND ( 'NONE', #213, .T. ) ;
#96 = CARTESIAN_POINT ( 'NONE',  ( 8.500000000000003553, -8.500000000000000000, 1000.000000000000000 ) ) ;
#97 = PLANE ( 'NONE',  #193 ) ;
#98 = LINE ( 'NONE', #142, #283 ) ;
#99 = LINE ( 'NONE', #50, #200 ) ;
#100 = AXIS2_PLACEMENT_3D ( 'NONE', #77, #93, #173 ) ;
#101 = CLOSED_SHELL ( 'NONE', ( #55, #171, #9, #147, #175, #130, #191, #253, #167, #203 ) ) ;
#102 = VERTEX_POINT ( 'NONE', #296 ) ;
#103 = EDGE_CURVE ( 'NONE', #235, #32, #246, .T. ) ;
#104 = EDGE_CURVE ( 'NONE', #153, #229, #25, .T. ) ;
#105 = VECTOR ( 'NONE', #125, 1000.000000000000000 ) ;
#106 = ORIENTED_EDGE ( 'NONE', *, *, #68, .F. ) ;
#107 = EDGE_LOOP ( 'NONE', ( #285, #19, #15, #110 ) ) ;
#108 = LINE ( 'NONE', #212, #281 ) ;
#109 = APPLICATION_PROTOCOL_DEFINITION ( 'draft international standard', 'automotive_design', 1998, #186 ) ;
#110 = ORIENTED_EDGE ( 'NONE', *, *, #84, .T. ) ;
#111 = ORIENTED_EDGE ( 'NONE', *, *, #304, .T. ) ;
#112 = DIRECTION ( 'NONE',  ( -1.000000000000000000, -0.000000000000000000, -0.000000000000000000 ) ) ;
#113 = ORIENTED_EDGE ( 'NONE', *, *, #190, .T. ) ;
#114 = CARTESIAN_POINT ( 'NONE',  ( -10.00000000000000000, -10.00000000000000000, 1000.000000000000000 ) ) ;
#115 = DIRECTION ( 'NONE',  ( 0.000000000000000000, 0.000000000000000000, 1.000000000000000000 ) ) ;
#116 = FACE_OUTER_BOUND ( 'NONE', #261, .T. ) ;
#117 = CARTESIAN_POINT ( 'NONE',  ( 10.00000000000000000, -10.00000000000000000, 0.000000000000000000 ) ) ;
#118 = CARTESIAN_POINT ( 'NONE',  ( -8.500000000000000000, -8.500000000000000000, 0.000000000000000000 ) ) ;
#119 = DIRECTION ( 'NONE',  ( 0.000000000000000000, 0.000000000000000000, 1.000000000000000000 ) ) ;
#120 = VECTOR ( 'NONE', #90, 1000.000000000000000 ) ;
#121 = CARTESIAN_POINT ( 'NONE',  ( -10.00000000000000000, -10.00000000000000000, 0.000000000000000000 ) ) ;
#122 =( NAMED_UNIT ( * ) PLANE_ANGLE_UNIT ( ) SI_UNIT ( $, .RADIAN. ) );
#123 = CARTESIAN_POINT ( 'NONE',  ( -10.00000000000000000, 10.00000000000000000, 0.000000000000000000 ) ) ;
#124 = CARTESIAN_POINT ( 'NONE',  ( 8.500000000000003553, -8.500000000000000000, 0.000000000000000000 ) ) ;
#125 = DIRECTION ( 'NONE',  ( 1.000000000000000000, 0.000000000000000000, 0.000000000000000000 ) ) ;
#126 = VECTOR ( 'NONE', #148, 1000.000000000000000 ) ;
#127 = VECTOR ( 'NONE', #249, 1000.000000000000000 ) ;
#128 = ORIENTED_EDGE ( 'NONE', *, *, #84, .F. ) ;
#129 = VERTEX_POINT ( 'NONE', #168 ) ;
#130 = ADVANCED_FACE ( 'NONE', ( #95 ), #46, .F. ) ;
#131 =( GEOMETRIC_REPRESENTATION_CONTEXT ( 3 ) GLOBAL_UNCERTAINTY_ASSIGNED_CONTEXT ( ( #215 ) ) GLOBAL_UNIT_ASSIGNED_CONTEXT ( ( #206, #268, #208 ) ) REPRESENTATION_CONTEXT ( 'NONE', 'WORKASPACE' ) );
#132 = ORIENTED_EDGE ( 'NONE', *, *, #43, .F. ) ;
#133 = PRODUCT_DEFINITION_CONTEXT ( 'detailed design', #135, 'design' ) ;
#134 = VERTEX_POINT ( 'NONE', #118 ) ;
#135 = APPLICATION_CONTEXT ( 'automotive_design' ) ;
#136 = ORIENTED_EDGE ( 'NONE', *, *, #265, .T. ) ;
#137 = DIRECTION ( 'NONE',  ( -1.000000000000000000, 0.000000000000000000, 0.000000000000000000 ) ) ;
#138 = CARTESIAN_POINT ( 'NONE',  ( -10.00000000000000000, 10.00000000000000000, 0.000000000000000000 ) ) ;
#139 = ORIENTED_EDGE ( 'NONE', *, *, #43, .T. ) ;
#140 = DIRECTION ( 'NONE',  ( 0.000000000000000000, 0.000000000000000000, -1.000000000000000000 ) ) ;
#141 = MECHANICAL_DESIGN_GEOMETRIC_PRESENTATION_REPRESENTATION (  '', ( #20 ), #243 ) ;
#142 = CARTESIAN_POINT ( 'NONE',  ( -10.00000000000000000, -10.00000000000000000, 1000.000000000000000 ) ) ;
#143 = DIRECTION ( 'NONE',  ( 0.000000000000000000, 1.000000000000000000, 0.000000000000000000 ) ) ;
#144 = CARTESIAN_POINT ( 'NONE',  ( 10.00000000000000000, 10.00000000000000000, 1000.000000000000000 ) ) ;
#145 = LINE ( 'NONE', #123, #185 ) ;
#146 = VECTOR ( 'NONE', #4, 1000.000000000000000 ) ;
#147 = ADVANCED_FACE ( 'NONE', ( #272 ), #195, .F. ) ;
#148 = DIRECTION ( 'NONE',  ( -0.000000000000000000, -1.000000000000000000, -0.000000000000000000 ) ) ;
#149 = DIRECTION ( 'NONE',  ( 0.000000000000000000, 0.000000000000000000, -1.000000000000000000 ) ) ;
#150 = CARTESIAN_POINT ( 'NONE',  ( 10.00000000000000000, 10.00000000000000000, 0.000000000000000000 ) ) ;
#151 = AXIS2_PLACEMENT_3D ( 'NONE', #318, #217, #45 ) ;
#152 = VECTOR ( 'NONE', #52, 1000.000000000000000 ) ;
#153 = VERTEX_POINT ( 'NONE', #117 ) ;
#154 = EDGE_CURVE ( 'NONE', #228, #310, #219, .T. ) ;
#155 = CARTESIAN_POINT ( 'NONE',  ( 10.00000000000000000, -10.00000000000000000, 1000.000000000000000 ) ) ;
#156 = VERTEX_POINT ( 'NONE', #192 ) ;
#157 = ORIENTED_EDGE ( 'NONE', *, *, #202, .T. ) ;
#158 = ORIENTED_EDGE ( 'NONE', *, *, #154, .F. ) ;
#159 = FACE_OUTER_BOUND ( 'NONE', #287, .T. ) ;
#160 = DIRECTION ( 'NONE',  ( -0.000000000000000000, -0.000000000000000000, -1.000000000000000000 ) ) ;
#161 = ORIENTED_EDGE ( 'NONE', *, *, #323, .F. ) ;
#162 = PLANE ( 'NONE',  #57 ) ;
#163 = DIRECTION ( 'NONE',  ( -0.000000000000000000, -0.000000000000000000, -1.000000000000000000 ) ) ;
#164 = CARTESIAN_POINT ( 'NONE',  ( -8.500000000000000000, -8.500000000000000000, 1000.000000000000000 ) ) ;
#165 = EDGE_CURVE ( 'NONE', #32, #263, #47, .T. ) ;
#166 = VECTOR ( 'NONE', #73, 1000.000000000000000 ) ;
#167 = ADVANCED_FACE ( 'NONE', ( #116 ), #23, .T. ) ;
#168 = CARTESIAN_POINT ( 'NONE',  ( 8.500000000000003553, 8.500000000000000000, 1000.000000000000000 ) ) ;
#169 = CARTESIAN_POINT ( 'NONE',  ( 8.500000000000003553, -8.500000000000000000, 0.000000000000000000 ) ) ;
#170 = CARTESIAN_POINT ( 'NONE',  ( 10.00000000000000000, -10.00000000000000000, 1000.000000000000000 ) ) ;
#171 = ADVANCED_FACE ( 'NONE', ( #241, #214 ), #42, .T. ) ;
#172 = CARTESIAN_POINT ( 'NONE',  ( 10.00000000000000000, -10.00000000000000000, 1000.000000000000000 ) ) ;
#173 = DIRECTION ( 'NONE',  ( 0.000000000000000000, -0.000000000000000000, -1.000000000000000000 ) ) ;
#174 = PRESENTATION_STYLE_ASSIGNMENT (( #279 ) ) ;
#175 = ADVANCED_FACE ( 'NONE', ( #5 ), #189, .F. ) ;
#176 = ORIENTED_EDGE ( 'NONE', *, *, #230, .T. ) ;
#177 = LINE ( 'NONE', #234, #309 ) ;
#178 = ORIENTED_EDGE ( 'NONE', *, *, #103, .T. ) ;
#179 = ORIENTED_EDGE ( 'NONE', *, *, #154, .T. ) ;
#180 = APPLICATION_PROTOCOL_DEFINITION ( 'draft international standard', 'automotive_design', 1998, #135 ) ;
#181 = ORIENTED_EDGE ( 'NONE', *, *, #31, .T. ) ;
#182 = ORIENTED_EDGE ( 'NONE', *, *, #48, .T. ) ;
#183 = DIRECTION ( 'NONE',  ( 0.000000000000000000, 1.000000000000000000, 0.000000000000000000 ) ) ;
#184 = DIRECTION ( 'NONE',  ( -0.000000000000000000, -0.000000000000000000, -1.000000000000000000 ) ) ;
#185 = VECTOR ( 'NONE', #3, 1000.000000000000000 ) ;
#186 = APPLICATION_CONTEXT ( 'automotive_design' ) ;
#187 = EDGE_LOOP ( 'NONE', ( #86, #62, #132, #317 ) ) ;
#188 = DIRECTION ( 'NONE',  ( 0.000000000000000000, 0.000000000000000000, 1.000000000000000000 ) ) ;
#189 = PLANE ( 'NONE',  #151 ) ;
#190 = EDGE_CURVE ( 'NONE', #13, #88, #290, .T. ) ;
#191 = ADVANCED_FACE ( 'NONE', ( #92 ), #162, .T. ) ;
#192 = CARTESIAN_POINT ( 'NONE',  ( 8.500000000000003553, -8.500000000000000000, 1000.000000000000000 ) ) ;
#193 = AXIS2_PLACEMENT_3D ( 'NONE', #302, #149, #76 ) ;
#194 = VECTOR ( 'NONE', #184, 1000.000000000000000 ) ;
#195 = PLANE ( 'NONE',  #271 ) ;
#196 = DIRECTION ( 'NONE',  ( -1.000000000000000000, -0.000000000000000000, -0.000000000000000000 ) ) ;
#197 = CARTESIAN_POINT ( 'NONE',  ( -8.500000000000000000, 8.500000000000000000, 1000.000000000000000 ) ) ;
#198 = DIRECTION ( 'NONE',  ( 0.000000000000000000, -0.000000000000000000, 1.000000000000000000 ) ) ;
#199 = LINE ( 'NONE', #96, #166 ) ;
#200 = VECTOR ( 'NONE', #251, 1000.000000000000000 ) ;
#201 = SURFACE_STYLE_FILL_AREA ( #78 ) ;
#202 = EDGE_CURVE ( 'NONE', #286, #228, #98, .T. ) ;
#203 = ADVANCED_FACE ( 'NONE', ( #269 ), #267, .T. ) ;
#204 = ORIENTED_EDGE ( 'NONE', *, *, #31, .F. ) ;
#205 = VECTOR ( 'NONE', #319, 1000.000000000000000 ) ;
#206 =( LENGTH_UNIT ( ) NAMED_UNIT ( * ) SI_UNIT ( .MILLI., .METRE. ) );
#207 = ORIENTED_EDGE ( 'NONE', *, *, #259, .F. ) ;
#208 =( NAMED_UNIT ( * ) SI_UNIT ( $, .STERADIAN. ) SOLID_ANGLE_UNIT ( ) );
#209 = ADVANCED_BREP_SHAPE_REPRESENTATION ( 'PS20S1.5X \X2\041f0440043e04440438043b044c\X0\ \X2\0430043b044e043c0438043d043804350432044b0439\X0\, \X2\043a043204300434044004300442\X0\ 20x20x1,5 (\X2\041104350437\X0\ \X2\043f043e043a0440044b04420438044f\X0\)', ( #60, #54 ), #131 ) ;
#210 = ORIENTED_EDGE ( 'NONE', *, *, #165, .F. ) ;
#211 = EDGE_LOOP ( 'NONE', ( #262, #176, #178, #240 ) ) ;
#212 = CARTESIAN_POINT ( 'NONE',  ( 8.500000000000003553, -8.500000000000000000, 1000.000000000000000 ) ) ;
#213 = EDGE_LOOP ( 'NONE', ( #181, #161, #311, #179 ) ) ;
#214 = FACE_BOUND ( 'NONE', #211, .T. ) ;
#215 = UNCERTAINTY_MEASURE_WITH_UNIT (LENGTH_MEASURE( 1.000000000000000082E-05 ), #206, 'distance_accuracy_value', 'NONE');
#216 = ORIENTED_EDGE ( 'NONE', *, *, #304, .F. ) ;
#217 = DIRECTION ( 'NONE',  ( 1.000000000000000000, 0.000000000000000000, 0.000000000000000000 ) ) ;
#218 = DIRECTION ( 'NONE',  ( -1.000000000000000000, 0.000000000000000000, -0.000000000000000000 ) ) ;
#219 = LINE ( 'NONE', #322, #297 ) ;
#220 = DIRECTION ( 'NONE',  ( 0.000000000000000000, -0.000000000000000000, 1.000000000000000000 ) ) ;
#221 = CARTESIAN_POINT ( 'NONE',  ( -10.00000000000000000, -10.00000000000000000, 0.000000000000000000 ) ) ;
#222 = VECTOR ( 'NONE', #14, 1000.000000000000000 ) ;
#223 = FACE_OUTER_BOUND ( 'NONE', #7, .T. ) ;
#224 = LINE ( 'NONE', #233, #222 ) ;
#225 = LINE ( 'NONE', #75, #126 ) ;
#226 = VECTOR ( 'NONE', #72, 1000.000000000000000 ) ;
#227 = EDGE_CURVE ( 'NONE', #313, #134, #278, .T. ) ;
#228 = VERTEX_POINT ( 'NONE', #114 ) ;
#229 = VERTEX_POINT ( 'NONE', #150 ) ;
#230 = EDGE_CURVE ( 'NONE', #134, #235, #250, .T. ) ;
#231 = CARTESIAN_POINT ( 'NONE',  ( -10.00000000000000000, 10.00000000000000000, 1000.000000000000000 ) ) ;
#232 = EDGE_LOOP ( 'NONE', ( #106, #87, #306, #38 ) ) ;
#233 = CARTESIAN_POINT ( 'NONE',  ( -10.00000000000000000, -10.00000000000000000, 1000.000000000000000 ) ) ;
#234 = CARTESIAN_POINT ( 'NONE',  ( -10.00000000000000000, 10.00000000000000000, 1000.000000000000000 ) ) ;
#235 = VERTEX_POINT ( 'NONE', #124 ) ;
#236 = UNCERTAINTY_MEASURE_WITH_UNIT (LENGTH_MEASURE( 1.000000000000000082E-05 ), #53, 'distance_accuracy_value', 'NONE');
#237 = ORIENTED_EDGE ( 'NONE', *, *, #202, .F. ) ;
#238 = CARTESIAN_POINT ( 'NONE',  ( 10.00000000000000000, -10.00000000000000000, 1000.000000000000000 ) ) ;
#239 = EDGE_CURVE ( 'NONE', #228, #13, #224, .T. ) ;
#240 = ORIENTED_EDGE ( 'NONE', *, *, #165, .T. ) ;
#241 = FACE_OUTER_BOUND ( 'NONE', #256, .T. ) ;
#242 = PRODUCT_CONTEXT ( 'NONE', #186, 'mechanical' ) ;
#243 =( GEOMETRIC_REPRESENTATION_CONTEXT ( 3 ) GLOBAL_UNCERTAINTY_ASSIGNED_CONTEXT ( ( #236 ) ) GLOBAL_UNIT_ASSIGNED_CONTEXT ( ( #53, #122, #305 ) ) REPRESENTATION_CONTEXT ( 'NONE', 'WORKASPACE' ) );
#244 = CARTESIAN_POINT ( 'NONE',  ( -8.500000000000000000, 8.500000000000000000, 0.000000000000000000 ) ) ;
#245 = DIRECTION ( 'NONE',  ( 0.000000000000000000, -1.000000000000000000, 0.000000000000000000 ) ) ;
#246 = LINE ( 'NONE', #169, #226 ) ;
#247 = PLANE ( 'NONE',  #277 ) ;
#248 = VECTOR ( 'NONE', #196, 1000.000000000000000 ) ;
#249 = DIRECTION ( 'NONE',  ( 1.000000000000000000, 0.000000000000000000, 0.000000000000000000 ) ) ;
#250 = LINE ( 'NONE', #63, #36 ) ;
#251 = DIRECTION ( 'NONE',  ( -0.000000000000000000, -1.000000000000000000, -0.000000000000000000 ) ) ;
#252 = EDGE_CURVE ( 'NONE', #156, #129, #108, .T. ) ;
#253 = ADVANCED_FACE ( 'NONE', ( #159 ), #89, .T. ) ;
#254 = VECTOR ( 'NONE', #112, 1000.000000000000000 ) ;
#255 = PRODUCT_DEFINITION_FORMATION_WITH_SPECIFIED_SOURCE ( 'ANY', '', #320, .NOT_KNOWN. ) ;
#256 = EDGE_LOOP ( 'NONE', ( #292, #204, #37, #82 ) ) ;
#257 = ORIENTED_EDGE ( 'NONE', *, *, #103, .F. ) ;
#258 = EDGE_CURVE ( 'NONE', #129, #32, #293, .T. ) ;
#259 = EDGE_CURVE ( 'NONE', #88, #286, #291, .T. ) ;
#260 = ORIENTED_EDGE ( 'NONE', *, *, #104, .T. ) ;
#261 = EDGE_LOOP ( 'NONE', ( #210, #91, #139, #16 ) ) ;
#262 = ORIENTED_EDGE ( 'NONE', *, *, #68, .T. ) ;
#263 = VERTEX_POINT ( 'NONE', #58 ) ;
#264 = CARTESIAN_POINT ( 'NONE',  ( 8.500000000000003553, -8.500000000000000000, 1000.000000000000000 ) ) ;
#265 = EDGE_CURVE ( 'NONE', #88, #229, #294, .T. ) ;
#266 = EDGE_LOOP ( 'NONE', ( #182, #158, #237, #111 ) ) ;
#267 = PLANE ( 'NONE',  #298 ) ;
#268 =( NAMED_UNIT ( * ) PLANE_ANGLE_UNIT ( ) SI_UNIT ( $, .RADIAN. ) );
#269 = FACE_OUTER_BOUND ( 'NONE', #232, .T. ) ;
#270 = CARTESIAN_POINT ( 'NONE',  ( -10.00000000000000000, -10.00000000000000000, 1000.000000000000000 ) ) ;
#271 = AXIS2_PLACEMENT_3D ( 'NONE', #299, #245, #24 ) ;
#272 = FACE_OUTER_BOUND ( 'NONE', #85, .T. ) ;
#273 = DIRECTION ( 'NONE',  ( 0.000000000000000000, 1.000000000000000000, 0.000000000000000000 ) ) ;
#274 = FACE_OUTER_BOUND ( 'NONE', #61, .T. ) ;
#275 = SURFACE_SIDE_STYLE ('',( #201 ) ) ;
#276 = LINE ( 'NONE', #121, #127 ) ;
#277 = AXIS2_PLACEMENT_3D ( 'NONE', #172, #74, #119 ) ;
#278 = LINE ( 'NONE', #39, #152 ) ;
#279 = SURFACE_STYLE_USAGE ( .BOTH. , #275 ) ;
#280 = PRODUCT_RELATED_PRODUCT_CATEGORY ( 'part', '', ( #320 ) ) ;
#281 = VECTOR ( 'NONE', #315, 1000.000000000000000 ) ;
#282 = DIRECTION ( 'NONE',  ( -0.000000000000000000, -0.000000000000000000, -1.000000000000000000 ) ) ;
#283 = VECTOR ( 'NONE', #69, 1000.000000000000000 ) ;
#284 = CARTESIAN_POINT ( 'NONE',  ( -8.500000000000000000, 8.500000000000000000, 1000.000000000000000 ) ) ;
#285 = ORIENTED_EDGE ( 'NONE', *, *, #230, .F. ) ;
#286 = VERTEX_POINT ( 'NONE', #64 ) ;
#287 = EDGE_LOOP ( 'NONE', ( #257, #128, #65, #41 ) ) ;
#288 = EDGE_CURVE ( 'NONE', #102, #263, #316, .T. ) ;
#289 = VERTEX_POINT ( 'NONE', #138 ) ;
#290 = LINE ( 'NONE', #238, #11 ) ;
#291 = LINE ( 'NONE', #231, #120 ) ;
#292 = ORIENTED_EDGE ( 'NONE', *, *, #104, .F. ) ;
#293 = LINE ( 'NONE', #17, #12 ) ;
#294 = LINE ( 'NONE', #40, #194 ) ;
#295 = CARTESIAN_POINT ( 'NONE',  ( -8.500000000000000000, -8.500000000000000000, 1000.000000000000000 ) ) ;
#296 = CARTESIAN_POINT ( 'NONE',  ( -8.500000000000000000, 8.500000000000000000, 1000.000000000000000 ) ) ;
#297 = VECTOR ( 'NONE', #94, 1000.000000000000000 ) ;
#298 = AXIS2_PLACEMENT_3D ( 'NONE', #164, #303, #66 ) ;
#299 = CARTESIAN_POINT ( 'NONE',  ( -10.00000000000000000, 10.00000000000000000, 1000.000000000000000 ) ) ;
#300 = FILL_AREA_STYLE_COLOUR ( '', #6 ) ;
#301 = LINE ( 'NONE', #29, #105 ) ;
#302 = CARTESIAN_POINT ( 'NONE',  ( 0.000000000000000000, 0.000000000000000000, 1000.000000000000000 ) ) ;
#303 = DIRECTION ( 'NONE',  ( 1.000000000000000000, 0.000000000000000000, 0.000000000000000000 ) ) ;
#304 = EDGE_CURVE ( 'NONE', #286, #289, #177, .T. ) ;
#305 =( NAMED_UNIT ( * ) SI_UNIT ( $, .STERADIAN. ) SOLID_ANGLE_UNIT ( ) );
#306 = ORIENTED_EDGE ( 'NONE', *, *, #80, .T. ) ;
#307 = PRODUCT_DEFINITION ( 'UNKNOWN', '', #255, #133 ) ;
#308 = AXIS2_PLACEMENT_3D ( 'NONE', #321, #140, #218 ) ;
#309 = VECTOR ( 'NONE', #163, 1000.000000000000000 ) ;
#310 = VERTEX_POINT ( 'NONE', #67 ) ;
#311 = ORIENTED_EDGE ( 'NONE', *, *, #239, .F. ) ;
#312 = DIRECTION ( 'NONE',  ( 1.000000000000000000, 0.000000000000000000, 0.000000000000000000 ) ) ;
#313 = VERTEX_POINT ( 'NONE', #83 ) ;
#314 = ORIENTED_EDGE ( 'NONE', *, *, #259, .T. ) ;
#315 = DIRECTION ( 'NONE',  ( 0.000000000000000000, 1.000000000000000000, 0.000000000000000000 ) ) ;
#316 = LINE ( 'NONE', #284, #81 ) ;
#317 = ORIENTED_EDGE ( 'NONE', *, *, #252, .F. ) ;
#318 = CARTESIAN_POINT ( 'NONE',  ( -10.00000000000000000, -10.00000000000000000, 1000.000000000000000 ) ) ;
#319 = DIRECTION ( 'NONE',  ( -0.000000000000000000, -0.000000000000000000, -1.000000000000000000 ) ) ;
#320 = PRODUCT ( 'PS20S1.5X \X2\041f0440043e04440438043b044c\X0\ \X2\0430043b044e043c0438043d043804350432044b0439\X0\, \X2\043a043204300434044004300442\X0\ 20x20x1,5 (\X2\041104350437\X0\ \X2\043f043e043a0440044b04420438044f\X0\)', 'PS20S1.5X \X2\041f0440043e04440438043b044c\X0\ \X2\0430043b044e043c0438043d043804350432044b0439\X0\, \X2\043a043204300434044004300442\X0\ 20x20x1,5 (\X2\041104350437\X0\ \X2\043f043e043a0440044b04420438044f\X0\)', '', ( #242 ) ) ;
#321 = CARTESIAN_POINT ( 'NONE',  ( 0.000000000000000000, 0.000000000000000000, 0.000000000000000000 ) ) ;
#322 = CARTESIAN_POINT ( 'NONE',  ( -10.00000000000000000, -10.00000000000000000, 1000.000000000000000 ) ) ;
#323 = EDGE_CURVE ( 'NONE', #13, #153, #18, .T. ) ;
ENDSEC;
END-ISO-10303-21;
