ISO-10303-21;
HEADER;
FILE_DESCRIPTION (( 'STEP AP214' ),
    '1' );
FILE_NAME ('Ñáîðêà16.STEP',
    '2024-12-06T14:53:15',
    ( '' ),
    ( '' ),
    'SwSTEP 2.0',
    'SolidWorks 2024',
    '' );
FILE_SCHEMA (( 'AUTOMOTIVE_DESIGN' ));
ENDSEC;

DATA;
#1 = CARTESIAN_POINT ( 'NONE',  ( -30.00000000000000000, 5.000000000000000000, 0.000000000000000000 ) ) ;
#2 = EDGE_LOOP ( 'NONE', ( #171, #150, #13, #8 ) ) ;
#3 = LINE ( 'NONE', #125, #59 ) ;
#4 = CARTESIAN_POINT ( 'NONE',  ( 996.7489301358025386, 1006.409766940549389, 496.8423446063967504 ) ) ;
#5 =( GEOMETRIC_REPRESENTATION_CONTEXT ( 3 ) GLOBAL_UNCERTAINTY_ASSIGNED_CONTEXT ( ( #136 ) ) GLOBAL_UNIT_ASSIGNED_CONTEXT ( ( #182, #19, #212 ) ) REPRESENTATION_CONTEXT ( 'NONE', 'WORKASPACE' ) );
#6 = DIRECTION ( 'NONE',  ( 0.000000000000000000, 0.000000000000000000, 1.000000000000000000 ) ) ;
#7 = DIRECTION ( 'NONE',  ( 1.000000000000000000, 0.000000000000000000, 0.000000000000000000 ) ) ;
#8 = ORIENTED_EDGE ( 'NONE', *, *, #23, .F. ) ;
#9 = EDGE_CURVE ( 'NONE', #191, #163, #204, .T. ) ;
#10 = APPLICATION_CONTEXT ( 'automotive_design' ) ;
#11 = DIRECTION ( 'NONE',  ( -1.000000000000000000, 0.000000000000000000, -0.000000000000000000 ) ) ;
#12 = SHAPE_REPRESENTATION ( 'SH60S10X \X2\0410043b044e043c0438043d0438043504320430044f\X0\ \X2\043f043e043b043e04410430\X0\ \X2\04100414\X0\31\X2\0422\X0\ 60\X2\0445\X0\10 (\X2\041104350437\X0\ \X2\043f043e043a0440044b04420438044f\X0\)_60\X2\0445\X0\10', ( #208 ), #127 ) ;
#13 = ORIENTED_EDGE ( 'NONE', *, *, #177, .F. ) ;
#14 = ORIENTED_EDGE ( 'NONE', *, *, #99, .F. ) ;
#15 = DIRECTION ( 'NONE',  ( -0.000000000000000000, -1.000000000000000000, -0.000000000000000000 ) ) ;
#16 = PRODUCT_DEFINITION ( 'UNKNOWN', '', #221, #153 ) ;
#17 = PRESENTATION_LAYER_ASSIGNMENT (  '', '', ( #32 ) ) ;
#18 = APPLICATION_CONTEXT ( 'automotive_design' ) ;
#19 =( NAMED_UNIT ( * ) PLANE_ANGLE_UNIT ( ) SI_UNIT ( $, .RADIAN. ) );
#20 = LINE ( 'NONE', #73, #76 ) ;
#21 = VECTOR ( 'NONE', #15, 1000.000000000000000 ) ;
#22 = DIRECTION ( 'NONE',  ( 0.000000000000000000, 0.000000000000000000, 1.000000000000000000 ) ) ;
#23 = EDGE_CURVE ( 'NONE', #85, #163, #174, .T. ) ;
#24 = ORIENTED_EDGE ( 'NONE', *, *, #9, .F. ) ;
#25 = CARTESIAN_POINT ( 'NONE',  ( 30.00000000000000000, -5.000000000000000000, 0.000000000000000000 ) ) ;
#26 = ORIENTED_EDGE ( 'NONE', *, *, #114, .T. ) ;
#27 = PRODUCT_DEFINITION_FORMATION_WITH_SPECIFIED_SOURCE ( 'ANY', '', #60, .NOT_KNOWN. ) ;
#28 = ADVANCED_FACE ( 'NONE', ( #86 ), #66, .F. ) ;
#29 = SHAPE_REPRESENTATION ( '\X2\04210431043e0440043a0430\X0\16', ( #103, #88 ), #5 ) ;
#30 = SURFACE_STYLE_USAGE ( .BOTH. , #209 ) ;
#31 = CARTESIAN_POINT ( 'NONE',  ( 0.000000000000000000, 0.000000000000000000, 0.000000000000000000 ) ) ;
#32 = STYLED_ITEM ( 'NONE', ( #48 ), #52 ) ;
#33 = ADVANCED_FACE ( 'NONE', ( #42 ), #179, .F. ) ;
#34 = DIRECTION ( 'NONE',  ( 0.000000000000000000, 0.000000000000000000, 1.000000000000000000 ) ) ;
#35 = VERTEX_POINT ( 'NONE', #139 ) ;
#36 = APPLICATION_CONTEXT ( 'automotive_design' ) ;
#37 = DIRECTION ( 'NONE',  ( 1.000000000000000000, 0.000000000000000000, 0.000000000000000000 ) ) ;
#38 = AXIS2_PLACEMENT_3D ( 'NONE', #159, #47, #69 ) ;
#39 = DIRECTION ( 'NONE',  ( -0.000000000000000000, -0.000000000000000000, -1.000000000000000000 ) ) ;
#40 = FACE_OUTER_BOUND ( 'NONE', #218, .T. ) ;
#41 = DIRECTION ( 'NONE',  ( -0.000000000000000000, -0.000000000000000000, -1.000000000000000000 ) ) ;
#42 = FACE_OUTER_BOUND ( 'NONE', #165, .T. ) ;
#43 = ORIENTED_EDGE ( 'NONE', *, *, #177, .T. ) ;
#44 = LINE ( 'NONE', #82, #102 ) ;
#45 = CLOSED_SHELL ( 'NONE', ( #28, #33, #189, #118, #216, #129 ) ) ;
#46 = DIRECTION ( 'NONE',  ( -1.000000000000000000, 0.000000000000000000, -0.000000000000000000 ) ) ;
#47 = DIRECTION ( 'NONE',  ( 0.000000000000000000, -1.000000000000000000, 0.000000000000000000 ) ) ;
#48 = PRESENTATION_STYLE_ASSIGNMENT (( #30 ) ) ;
#49 = CARTESIAN_POINT ( 'NONE',  ( 30.00000000000000000, -5.000000000000000000, 0.000000000000000000 ) ) ;
#50 = EDGE_CURVE ( 'NONE', #77, #35, #3, .T. ) ;
#51 = SHAPE_REPRESENTATION_RELATIONSHIP ( 'NONE' , 'NONE' ,  #12, #207 ) ;
#52 = MANIFOLD_SOLID_BREP ( '\X2\0411043e0431044b0448043a0430\X0\-\X2\0412044b0442044f043d04430442044c\X0\1', #45 ) ;
#53 = CONTEXT_DEPENDENT_SHAPE_REPRESENTATION ( #151, #63 ) ;
#54 = APPLICATION_PROTOCOL_DEFINITION ( 'draft international standard', 'automotive_design', 1998, #36 ) ;
#55 = PRODUCT_CONTEXT ( 'NONE', #36, 'mechanical' ) ;
#56 = CARTESIAN_POINT ( 'NONE',  ( -30.00000000000000000, -5.000000000000000000, 0.000000000000000000 ) ) ;
#57 = PRODUCT_DEFINITION ( 'UNKNOWN', '', #27, #105 ) ;
#58 = ORIENTED_EDGE ( 'NONE', *, *, #99, .T. ) ;
#59 = VECTOR ( 'NONE', #71, 1000.000000000000000 ) ;
#60 = PRODUCT ( 'SH60S10X \X2\0410043b044e043c0438043d0438043504320430044f\X0\ \X2\043f043e043b043e04410430\X0\ \X2\04100414\X0\31\X2\0422\X0\ 60\X2\0445\X0\10 (\X2\041104350437\X0\ \X2\043f043e043a0440044b04420438044f\X0\)_60\X2\0445\X0\10', 'SH60S10X \X2\0410043b044e043c0438043d0438043504320430044f\X0\ \X2\043f043e043b043e04410430\X0\ \X2\04100414\X0\31\X2\0422\X0\ 60\X2\0445\X0\10 (\X2\041104350437\X0\ \X2\043f043e043a0440044b04420438044f\X0\)_60\X2\0445\X0\10', '', ( #55 ) ) ;
#61 = EDGE_LOOP ( 'NONE', ( #130, #14, #119, #26 ) ) ;
#62 = CARTESIAN_POINT ( 'NONE',  ( 0.000000000000000000, 0.000000000000000000, 1000.000000000000000 ) ) ;
#63 = PRODUCT_DEFINITION_SHAPE ( 'NONE', 'NONE',  #224 ) ;
#64 = CARTESIAN_POINT ( 'NONE',  ( 30.00000000000000000, -5.000000000000000000, 1000.000000000000000 ) ) ;
#65 = DIRECTION ( 'NONE',  ( -1.000000000000000000, -0.000000000000000000, -0.000000000000000000 ) ) ;
#66 = PLANE ( 'NONE',  #220 ) ;
#67 = VECTOR ( 'NONE', #148, 1000.000000000000000 ) ;
#68 = DIRECTION ( 'NONE',  ( -1.000000000000000000, -0.000000000000000000, -0.000000000000000000 ) ) ;
#69 = DIRECTION ( 'NONE',  ( 0.000000000000000000, -0.000000000000000000, -1.000000000000000000 ) ) ;
#70 = AXIS2_PLACEMENT_3D ( 'NONE', #121, #107, #46 ) ;
#71 = DIRECTION ( 'NONE',  ( 0.000000000000000000, 1.000000000000000000, 0.000000000000000000 ) ) ;
#72 = DIRECTION ( 'NONE',  ( 1.000000000000000000, 0.000000000000000000, 0.000000000000000000 ) ) ;
#73 = CARTESIAN_POINT ( 'NONE',  ( -30.00000000000000000, -5.000000000000000000, 1000.000000000000000 ) ) ;
#74 = FACE_OUTER_BOUND ( 'NONE', #192, .T. ) ;
#75 = DIRECTION ( 'NONE',  ( 0.000000000000000000, 0.000000000000000000, 1.000000000000000000 ) ) ;
#76 = VECTOR ( 'NONE', #142, 1000.000000000000000 ) ;
#77 = VERTEX_POINT ( 'NONE', #110 ) ;
#78 = ORIENTED_EDGE ( 'NONE', *, *, #80, .F. ) ;
#79 = AXIS2_PLACEMENT_3D ( 'NONE', #213, #162, #215 ) ;
#80 = EDGE_CURVE ( 'NONE', #104, #77, #20, .T. ) ;
#81 =( LENGTH_UNIT ( ) NAMED_UNIT ( * ) SI_UNIT ( .MILLI., .METRE. ) );
#82 = CARTESIAN_POINT ( 'NONE',  ( -30.00000000000000000, 5.000000000000000000, 1000.000000000000000 ) ) ;
#83 = VECTOR ( 'NONE', #160, 1000.000000000000000 ) ;
#84 = EDGE_CURVE ( 'NONE', #191, #104, #93, .T. ) ;
#85 = VERTEX_POINT ( 'NONE', #106 ) ;
#86 = FACE_OUTER_BOUND ( 'NONE', #61, .T. ) ;
#87 = FACE_OUTER_BOUND ( 'NONE', #184, .T. ) ;
#88 = AXIS2_PLACEMENT_3D ( 'NONE', #4, #34, #128 ) ;
#89 = CARTESIAN_POINT ( 'NONE',  ( 30.00000000000000000, 5.000000000000000000, 1000.000000000000000 ) ) ;
#90 = FILL_AREA_STYLE_COLOUR ( '', #120 ) ;
#91 = PRODUCT_CONTEXT ( 'NONE', #111, 'mechanical' ) ;
#92 = VECTOR ( 'NONE', #122, 1000.000000000000000 ) ;
#93 = LINE ( 'NONE', #211, #83 ) ;
#94 = DIRECTION ( 'NONE',  ( 1.000000000000000000, 0.000000000000000000, 0.000000000000000000 ) ) ;
#95 = CARTESIAN_POINT ( 'NONE',  ( 30.00000000000000000, -5.000000000000000000, 1000.000000000000000 ) ) ;
#96 = CARTESIAN_POINT ( 'NONE',  ( 0.000000000000000000, 0.000000000000000000, 0.000000000000000000 ) ) ;
#97 =( NAMED_UNIT ( * ) PLANE_ANGLE_UNIT ( ) SI_UNIT ( $, .RADIAN. ) );
#98 = LINE ( 'NONE', #95, #183 ) ;
#99 = EDGE_CURVE ( 'NONE', #35, #85, #175, .T. ) ;
#100 = ORIENTED_EDGE ( 'NONE', *, *, #210, .T. ) ;
#101 = ORIENTED_EDGE ( 'NONE', *, *, #161, .T. ) ;
#102 = VECTOR ( 'NONE', #68, 1000.000000000000000 ) ;
#103 = AXIS2_PLACEMENT_3D ( 'NONE', #96, #75, #72 ) ;
#104 = VERTEX_POINT ( 'NONE', #145 ) ;
#105 = PRODUCT_DEFINITION_CONTEXT ( 'detailed design', #10, 'design' ) ;
#106 = CARTESIAN_POINT ( 'NONE',  ( 30.00000000000000000, 5.000000000000000000, 0.000000000000000000 ) ) ;
#107 = DIRECTION ( 'NONE',  ( 0.000000000000000000, 0.000000000000000000, -1.000000000000000000 ) ) ;
#108 = ITEM_DEFINED_TRANSFORMATION ( 'NONE', 'NONE', #88,  #208 ) ;
#109 =( NAMED_UNIT ( * ) PLANE_ANGLE_UNIT ( ) SI_UNIT ( $, .RADIAN. ) );
#110 = CARTESIAN_POINT ( 'NONE',  ( 30.00000000000000000, -5.000000000000000000, 1000.000000000000000 ) ) ;
#111 = APPLICATION_CONTEXT ( 'automotive_design' ) ;
#112 = UNCERTAINTY_MEASURE_WITH_UNIT (LENGTH_MEASURE( 1.000000000000000082E-05 ), #81, 'distance_accuracy_value', 'NONE');
#113 = PLANE ( 'NONE',  #79 ) ;
#114 = EDGE_CURVE ( 'NONE', #77, #146, #98, .T. ) ;
#115 = PRODUCT_DEFINITION_SHAPE ( 'NONE', 'NONE',  #57 ) ;
#116 = CARTESIAN_POINT ( 'NONE',  ( -30.00000000000000000, -5.000000000000000000, 0.000000000000000000 ) ) ;
#117 = CARTESIAN_POINT ( 'NONE',  ( -30.00000000000000000, 5.000000000000000000, 1000.000000000000000 ) ) ;
#118 = ADVANCED_FACE ( 'NONE', ( #74 ), #113, .F. ) ;
#119 = ORIENTED_EDGE ( 'NONE', *, *, #50, .F. ) ;
#120 = COLOUR_RGB ( '',0.7921568627450980005, 0.8196078431372548767, 0.9333333333333333481 ) ;
#121 = CARTESIAN_POINT ( 'NONE',  ( 0.000000000000000000, 0.000000000000000000, 0.000000000000000000 ) ) ;
#122 = DIRECTION ( 'NONE',  ( 0.000000000000000000, 1.000000000000000000, 0.000000000000000000 ) ) ;
#123 = CARTESIAN_POINT ( 'NONE',  ( -30.00000000000000000, -5.000000000000000000, 0.000000000000000000 ) ) ;
#124 = EDGE_CURVE ( 'NONE', #223, #146, #217, .T. ) ;
#125 = CARTESIAN_POINT ( 'NONE',  ( 30.00000000000000000, -5.000000000000000000, 1000.000000000000000 ) ) ;
#126 = PRODUCT_RELATED_PRODUCT_CATEGORY ( 'part', '', ( #186 ) ) ;
#127 =( GEOMETRIC_REPRESENTATION_CONTEXT ( 3 ) GLOBAL_UNCERTAINTY_ASSIGNED_CONTEXT ( ( #112 ) ) GLOBAL_UNIT_ASSIGNED_CONTEXT ( ( #81, #97, #185 ) ) REPRESENTATION_CONTEXT ( 'NONE', 'WORKASPACE' ) );
#128 = DIRECTION ( 'NONE',  ( 1.000000000000000000, 0.000000000000000000, 0.000000000000000000 ) ) ;
#129 = ADVANCED_FACE ( 'NONE', ( #187 ), #156, .T. ) ;
#130 = ORIENTED_EDGE ( 'NONE', *, *, #164, .T. ) ;
#131 = CARTESIAN_POINT ( 'NONE',  ( -30.00000000000000000, 5.000000000000000000, 1000.000000000000000 ) ) ;
#132 = ORIENTED_EDGE ( 'NONE', *, *, #50, .T. ) ;
#133 = VECTOR ( 'NONE', #65, 1000.000000000000000 ) ;
#134 = PRODUCT_RELATED_PRODUCT_CATEGORY ( 'part', '', ( #60 ) ) ;
#135 = ORIENTED_EDGE ( 'NONE', *, *, #210, .F. ) ;
#136 = UNCERTAINTY_MEASURE_WITH_UNIT (LENGTH_MEASURE( 1.000000000000000082E-05 ), #182, 'distance_accuracy_value', 'NONE');
#137 = DIRECTION ( 'NONE',  ( -1.000000000000000000, 0.000000000000000000, 0.000000000000000000 ) ) ;
#138 = ORIENTED_EDGE ( 'NONE', *, *, #80, .T. ) ;
#139 = CARTESIAN_POINT ( 'NONE',  ( 30.00000000000000000, 5.000000000000000000, 1000.000000000000000 ) ) ;
#140 = CARTESIAN_POINT ( 'NONE',  ( 0.000000000000000000, 0.000000000000000000, 0.000000000000000000 ) ) ;
#141 = SHAPE_DEFINITION_REPRESENTATION ( #115, #12 ) ;
#142 = DIRECTION ( 'NONE',  ( 1.000000000000000000, 0.000000000000000000, 0.000000000000000000 ) ) ;
#143 = SHAPE_DEFINITION_REPRESENTATION ( #222, #29 ) ;
#144 = ORIENTED_EDGE ( 'NONE', *, *, #84, .T. ) ;
#145 = CARTESIAN_POINT ( 'NONE',  ( -30.00000000000000000, -5.000000000000000000, 1000.000000000000000 ) ) ;
#146 = VERTEX_POINT ( 'NONE', #49 ) ;
#147 = VECTOR ( 'NONE', #41, 1000.000000000000000 ) ;
#148 = DIRECTION ( 'NONE',  ( -0.000000000000000000, -0.000000000000000000, -1.000000000000000000 ) ) ;
#149 = ORIENTED_EDGE ( 'NONE', *, *, #161, .F. ) ;
#150 = ORIENTED_EDGE ( 'NONE', *, *, #124, .F. ) ;
#151 =( REPRESENTATION_RELATIONSHIP ('NONE','NONE', #29, #12 ) REPRESENTATION_RELATIONSHIP_WITH_TRANSFORMATION ( #108 )SHAPE_REPRESENTATION_RELATIONSHIP( ) );
#152 = ORIENTED_EDGE ( 'NONE', *, *, #23, .T. ) ;
#153 = PRODUCT_DEFINITION_CONTEXT ( 'detailed design', #18, 'design' ) ;
#154 = ORIENTED_EDGE ( 'NONE', *, *, #124, .T. ) ;
#155 = AXIS2_PLACEMENT_3D ( 'NONE', #140, #6, #94 ) ;
#156 = PLANE ( 'NONE',  #70 ) ;
#157 = CARTESIAN_POINT ( 'NONE',  ( -30.00000000000000000, -5.000000000000000000, 1000.000000000000000 ) ) ;
#158 = FILL_AREA_STYLE ('',( #90 ) ) ;
#159 = CARTESIAN_POINT ( 'NONE',  ( -30.00000000000000000, 5.000000000000000000, 1000.000000000000000 ) ) ;
#160 = DIRECTION ( 'NONE',  ( -0.000000000000000000, -1.000000000000000000, -0.000000000000000000 ) ) ;
#161 = EDGE_CURVE ( 'NONE', #35, #191, #44, .T. ) ;
#162 = DIRECTION ( 'NONE',  ( 0.000000000000000000, 1.000000000000000000, 0.000000000000000000 ) ) ;
#163 = VERTEX_POINT ( 'NONE', #176 ) ;
#164 = EDGE_CURVE ( 'NONE', #146, #85, #178, .T. ) ;
#165 = EDGE_LOOP ( 'NONE', ( #152, #24, #149, #58 ) ) ;
#166 = UNCERTAINTY_MEASURE_WITH_UNIT (LENGTH_MEASURE( 1.000000000000000082E-05 ), #196, 'distance_accuracy_value', 'NONE');
#167 = DIRECTION ( 'NONE',  ( -0.000000000000000000, -0.000000000000000000, -1.000000000000000000 ) ) ;
#168 = AXIS2_PLACEMENT_3D ( 'NONE', #157, #201, #219 ) ;
#169 = DIRECTION ( 'NONE',  ( 0.000000000000000000, 0.000000000000000000, -1.000000000000000000 ) ) ;
#170 = LINE ( 'NONE', #123, #21 ) ;
#171 = ORIENTED_EDGE ( 'NONE', *, *, #164, .F. ) ;
#172 = LINE ( 'NONE', #202, #67 ) ;
#173 = ORIENTED_EDGE ( 'NONE', *, *, #114, .F. ) ;
#174 = LINE ( 'NONE', #1, #133 ) ;
#175 = LINE ( 'NONE', #89, #198 ) ;
#176 = CARTESIAN_POINT ( 'NONE',  ( -30.00000000000000000, 5.000000000000000000, 0.000000000000000000 ) ) ;
#177 = EDGE_CURVE ( 'NONE', #163, #223, #170, .T. ) ;
#178 = LINE ( 'NONE', #25, #92 ) ;
#179 = PLANE ( 'NONE',  #38 ) ;
#180 = APPLICATION_PROTOCOL_DEFINITION ( 'draft international standard', 'automotive_design', 1998, #111 ) ;
#181 = SURFACE_STYLE_FILL_AREA ( #158 ) ;
#182 =( LENGTH_UNIT ( ) NAMED_UNIT ( * ) SI_UNIT ( .MILLI., .METRE. ) );
#183 = VECTOR ( 'NONE', #167, 1000.000000000000000 ) ;
#184 = EDGE_LOOP ( 'NONE', ( #43, #135, #206, #199 ) ) ;
#185 =( NAMED_UNIT ( * ) SI_UNIT ( $, .STERADIAN. ) SOLID_ANGLE_UNIT ( ) );
#186 = PRODUCT ( '\X2\04210431043e0440043a0430\X0\16', '\X2\04210431043e0440043a0430\X0\16', '', ( #91 ) ) ;
#187 = FACE_OUTER_BOUND ( 'NONE', #2, .T. ) ;
#188 = VECTOR ( 'NONE', #37, 1000.000000000000000 ) ;
#189 = ADVANCED_FACE ( 'NONE', ( #87 ), #193, .F. ) ;
#190 = MECHANICAL_DESIGN_GEOMETRIC_PRESENTATION_REPRESENTATION (  '', ( #32 ), #195 ) ;
#191 = VERTEX_POINT ( 'NONE', #131 ) ;
#192 = EDGE_LOOP ( 'NONE', ( #154, #173, #78, #100 ) ) ;
#193 = PLANE ( 'NONE',  #168 ) ;
#194 =( NAMED_UNIT ( * ) SI_UNIT ( $, .STERADIAN. ) SOLID_ANGLE_UNIT ( ) );
#195 =( GEOMETRIC_REPRESENTATION_CONTEXT ( 3 ) GLOBAL_UNCERTAINTY_ASSIGNED_CONTEXT ( ( #166 ) ) GLOBAL_UNIT_ASSIGNED_CONTEXT ( ( #196, #109, #194 ) ) REPRESENTATION_CONTEXT ( 'NONE', 'WORKASPACE' ) );
#196 =( LENGTH_UNIT ( ) NAMED_UNIT ( * ) SI_UNIT ( .MILLI., .METRE. ) );
#197 = APPLICATION_PROTOCOL_DEFINITION ( 'draft international standard', 'automotive_design', 1998, #10 ) ;
#198 = VECTOR ( 'NONE', #39, 1000.000000000000000 ) ;
#199 = ORIENTED_EDGE ( 'NONE', *, *, #9, .T. ) ;
#200 = PLANE ( 'NONE',  #203 ) ;
#201 = DIRECTION ( 'NONE',  ( 1.000000000000000000, 0.000000000000000000, 0.000000000000000000 ) ) ;
#202 = CARTESIAN_POINT ( 'NONE',  ( -30.00000000000000000, -5.000000000000000000, 1000.000000000000000 ) ) ;
#203 = AXIS2_PLACEMENT_3D ( 'NONE', #62, #169, #11 ) ;
#204 = LINE ( 'NONE', #117, #147 ) ;
#205 = DIRECTION ( 'NONE',  ( 0.000000000000000000, 0.000000000000000000, 1.000000000000000000 ) ) ;
#206 = ORIENTED_EDGE ( 'NONE', *, *, #84, .F. ) ;
#207 = ADVANCED_BREP_SHAPE_REPRESENTATION ( '', ( #52, #208 ), #127 ) ;
#208 = AXIS2_PLACEMENT_3D ( 'NONE', #31, #22, #7 ) ;
#209 = SURFACE_SIDE_STYLE ('',( #181 ) ) ;
#210 = EDGE_CURVE ( 'NONE', #104, #223, #172, .T. ) ;
#211 = CARTESIAN_POINT ( 'NONE',  ( -30.00000000000000000, -5.000000000000000000, 1000.000000000000000 ) ) ;
#212 =( NAMED_UNIT ( * ) SI_UNIT ( $, .STERADIAN. ) SOLID_ANGLE_UNIT ( ) );
#213 = CARTESIAN_POINT ( 'NONE',  ( -30.00000000000000000, -5.000000000000000000, 1000.000000000000000 ) ) ;
#214 = APPLICATION_PROTOCOL_DEFINITION ( 'draft international standard', 'automotive_design', 1998, #18 ) ;
#215 = DIRECTION ( 'NONE',  ( 0.000000000000000000, -0.000000000000000000, 1.000000000000000000 ) ) ;
#216 = ADVANCED_FACE ( 'NONE', ( #40 ), #200, .F. ) ;
#217 = LINE ( 'NONE', #56, #188 ) ;
#218 = EDGE_LOOP ( 'NONE', ( #132, #101, #144, #138 ) ) ;
#219 = DIRECTION ( 'NONE',  ( 0.000000000000000000, 0.000000000000000000, -1.000000000000000000 ) ) ;
#220 = AXIS2_PLACEMENT_3D ( 'NONE', #64, #137, #205 ) ;
#221 = PRODUCT_DEFINITION_FORMATION_WITH_SPECIFIED_SOURCE ( 'ANY', '', #186, .NOT_KNOWN. ) ;
#222 = PRODUCT_DEFINITION_SHAPE ( 'NONE', 'NONE',  #16 ) ;
#223 = VERTEX_POINT ( 'NONE', #116 ) ;
#224 = NEXT_ASSEMBLY_USAGE_OCCURRENCE ( 'NAUO1', ' ', ' ', #16, #57, $ ) ;
ENDSEC;
END-ISO-10303-21;
