ISO-10303-21;
HEADER;
FILE_DESCRIPTION (( 'STEP AP214' ),
    '1' );
FILE_NAME ('Ñáîðêà1.STEP',
    '2024-12-09T07:46:31',
    ( '' ),
    ( '' ),
    'SwSTEP 2.0',
    'SolidWorks 2024',
    '' );
FILE_SCHEMA (( 'AUTOMOTIVE_DESIGN' ));
ENDSEC;

DATA;
#1 = ORIENTED_EDGE ( 'NONE', *, *, #127, .F. ) ;
#2 = PLANE ( 'NONE',  #72 ) ;
#3 = LINE ( 'NONE', #141, #120 ) ;
#4 = DIRECTION ( 'NONE',  ( 0.000000000000000000, -0.000000000000000000, 1.000000000000000000 ) ) ;
#5 = VECTOR ( 'NONE', #115, 1000.000000000000000 ) ;
#6 = LINE ( 'NONE', #194, #12 ) ;
#7 = AXIS2_PLACEMENT_3D ( 'NONE', #132, #204, #45 ) ;
#8 = SHAPE_REPRESENTATION ( 'SH80S8AD0X \X2\0410043b044e043c0438043d0438043504320430044f\X0\ \X2\043f043e043b043e04410430\X0\ \X2\04100414\X0\0 80\X2\0445\X0\8 (\X2\041104350437\X0\ \X2\043f043e043a0440044b04420438044f\X0\)_80\X2\0445\X0\8', ( #55 ), #189 ) ;
#9 = DIRECTION ( 'NONE',  ( -1.000000000000000000, 0.000000000000000000, 0.000000000000000000 ) ) ;
#10 =( NAMED_UNIT ( * ) SI_UNIT ( $, .STERADIAN. ) SOLID_ANGLE_UNIT ( ) );
#11 = ADVANCED_FACE ( 'NONE', ( #109 ), #158, .T. ) ;
#12 = VECTOR ( 'NONE', #104, 1000.000000000000000 ) ;
#13 = SHAPE_DEFINITION_REPRESENTATION ( #212, #8 ) ;
#14 = ORIENTED_EDGE ( 'NONE', *, *, #61, .F. ) ;
#15 = PRODUCT ( 'SH80S8AD0X \X2\0410043b044e043c0438043d0438043504320430044f\X0\ \X2\043f043e043b043e04410430\X0\ \X2\04100414\X0\0 80\X2\0445\X0\8 (\X2\041104350437\X0\ \X2\043f043e043a0440044b04420438044f\X0\)_80\X2\0445\X0\8', 'SH80S8AD0X \X2\0410043b044e043c0438043d0438043504320430044f\X0\ \X2\043f043e043b043e04410430\X0\ \X2\04100414\X0\0 80\X2\0445\X0\8 (\X2\041104350437\X0\ \X2\043f043e043a0440044b04420438044f\X0\)_80\X2\0445\X0\8', '', ( #30 ) ) ;
#16 = CARTESIAN_POINT ( 'NONE',  ( 40.00000000000000000, -4.000000000000000000, 0.000000000000000000 ) ) ;
#17 = EDGE_CURVE ( 'NONE', #210, #156, #190, .T. ) ;
#18 = CARTESIAN_POINT ( 'NONE',  ( -40.00000000000000000, 4.000000000000000000, 1000.000000000000000 ) ) ;
#19 = DIRECTION ( 'NONE',  ( -0.000000000000000000, -0.000000000000000000, -1.000000000000000000 ) ) ;
#20 = PLANE ( 'NONE',  #207 ) ;
#21 = PRESENTATION_LAYER_ASSIGNMENT (  '', '', ( #197 ) ) ;
#22 = DIRECTION ( 'NONE',  ( 0.000000000000000000, 1.000000000000000000, 0.000000000000000000 ) ) ;
#23 =( NAMED_UNIT ( * ) PLANE_ANGLE_UNIT ( ) SI_UNIT ( $, .RADIAN. ) );
#24 = FACE_OUTER_BOUND ( 'NONE', #88, .T. ) ;
#25 = ORIENTED_EDGE ( 'NONE', *, *, #17, .T. ) ;
#26 = PRODUCT_RELATED_PRODUCT_CATEGORY ( 'part', '', ( #15 ) ) ;
#27 = ADVANCED_FACE ( 'NONE', ( #54 ), #2, .F. ) ;
#28 = AXIS2_PLACEMENT_3D ( 'NONE', #57, #9, #160 ) ;
#29 = ORIENTED_EDGE ( 'NONE', *, *, #61, .T. ) ;
#30 = PRODUCT_CONTEXT ( 'NONE', #221, 'mechanical' ) ;
#31 = DIRECTION ( 'NONE',  ( 0.000000000000000000, 0.000000000000000000, -1.000000000000000000 ) ) ;
#32 = PRODUCT_DEFINITION_FORMATION_WITH_SPECIFIED_SOURCE ( 'ANY', '', #15, .NOT_KNOWN. ) ;
#33 = CARTESIAN_POINT ( 'NONE',  ( -40.00000000000000000, -4.000000000000000000, 1000.000000000000000 ) ) ;
#34 = ADVANCED_FACE ( 'NONE', ( #193 ), #79, .F. ) ;
#35 = DIRECTION ( 'NONE',  ( -0.000000000000000000, -0.000000000000000000, -1.000000000000000000 ) ) ;
#36 = PRODUCT ( '\X2\04210431043e0440043a0430\X0\1', '\X2\04210431043e0440043a0430\X0\1', '', ( #131 ) ) ;
#37 = CARTESIAN_POINT ( 'NONE',  ( 40.00000000000000000, -4.000000000000000000, 1000.000000000000000 ) ) ;
#38 = LINE ( 'NONE', #94, #99 ) ;
#39 = AXIS2_PLACEMENT_3D ( 'NONE', #18, #125, #93 ) ;
#40 = LINE ( 'NONE', #37, #150 ) ;
#41 = PRODUCT_DEFINITION_FORMATION_WITH_SPECIFIED_SOURCE ( 'ANY', '', #36, .NOT_KNOWN. ) ;
#42 = CARTESIAN_POINT ( 'NONE',  ( 40.00000000000000000, -4.000000000000000000, 1000.000000000000000 ) ) ;
#43 = CARTESIAN_POINT ( 'NONE',  ( -40.00000000000000000, 4.000000000000000000, 1000.000000000000000 ) ) ;
#44 = SHAPE_DEFINITION_REPRESENTATION ( #69, #89 ) ;
#45 = DIRECTION ( 'NONE',  ( 1.000000000000000000, 0.000000000000000000, 0.000000000000000000 ) ) ;
#46 = ADVANCED_FACE ( 'NONE', ( #144 ), #20, .F. ) ;
#47 = PRODUCT_DEFINITION ( 'UNKNOWN', '', #32, #147 ) ;
#48 = ORIENTED_EDGE ( 'NONE', *, *, #208, .F. ) ;
#49 = ITEM_DEFINED_TRANSFORMATION ( 'NONE', 'NONE', #7,  #55 ) ;
#50 = ORIENTED_EDGE ( 'NONE', *, *, #78, .F. ) ;
#51 = MECHANICAL_DESIGN_GEOMETRIC_PRESENTATION_REPRESENTATION (  '', ( #197 ), #83 ) ;
#52 = ORIENTED_EDGE ( 'NONE', *, *, #191, .F. ) ;
#53 = APPLICATION_CONTEXT ( 'automotive_design' ) ;
#54 = FACE_OUTER_BOUND ( 'NONE', #90, .T. ) ;
#55 = AXIS2_PLACEMENT_3D ( 'NONE', #148, #97, #112 ) ;
#56 = ORIENTED_EDGE ( 'NONE', *, *, #165, .F. ) ;
#57 = CARTESIAN_POINT ( 'NONE',  ( 40.00000000000000000, -4.000000000000000000, 1000.000000000000000 ) ) ;
#58 = PRESENTATION_STYLE_ASSIGNMENT (( #108 ) ) ;
#59 = EDGE_CURVE ( 'NONE', #171, #210, #142, .T. ) ;
#60 = CARTESIAN_POINT ( 'NONE',  ( -40.00000000000000000, 4.000000000000000000, 0.000000000000000000 ) ) ;
#61 = EDGE_CURVE ( 'NONE', #223, #156, #81, .T. ) ;
#62 = CARTESIAN_POINT ( 'NONE',  ( 0.000000000000000000, 0.000000000000000000, 1000.000000000000000 ) ) ;
#63 = CARTESIAN_POINT ( 'NONE',  ( 0.000000000000000000, 0.000000000000000000, 0.000000000000000000 ) ) ;
#64 = AXIS2_PLACEMENT_3D ( 'NONE', #62, #180, #151 ) ;
#65 = APPLICATION_PROTOCOL_DEFINITION ( 'draft international standard', 'automotive_design', 1998, #196 ) ;
#66 = DIRECTION ( 'NONE',  ( 1.000000000000000000, 0.000000000000000000, 0.000000000000000000 ) ) ;
#67 = EDGE_LOOP ( 'NONE', ( #25, #14, #138, #98 ) ) ;
#68 = VERTEX_POINT ( 'NONE', #124 ) ;
#69 = PRODUCT_DEFINITION_SHAPE ( 'NONE', 'NONE',  #192 ) ;
#70 =( REPRESENTATION_RELATIONSHIP ('NONE','NONE', #89, #8 ) REPRESENTATION_RELATIONSHIP_WITH_TRANSFORMATION ( #49 )SHAPE_REPRESENTATION_RELATIONSHIP( ) );
#71 = ORIENTED_EDGE ( 'NONE', *, *, #163, .T. ) ;
#72 = AXIS2_PLACEMENT_3D ( 'NONE', #33, #102, #74 ) ;
#73 = ORIENTED_EDGE ( 'NONE', *, *, #116, .F. ) ;
#74 = DIRECTION ( 'NONE',  ( 0.000000000000000000, 0.000000000000000000, -1.000000000000000000 ) ) ;
#75 = DIRECTION ( 'NONE',  ( 1.000000000000000000, 0.000000000000000000, 0.000000000000000000 ) ) ;
#76 = EDGE_CURVE ( 'NONE', #205, #223, #40, .T. ) ;
#77 = SURFACE_SIDE_STYLE ('',( #162 ) ) ;
#78 = EDGE_CURVE ( 'NONE', #68, #171, #173, .T. ) ;
#79 = PLANE ( 'NONE',  #28 ) ;
#80 = ADVANCED_FACE ( 'NONE', ( #213 ), #103, .F. ) ;
#81 = LINE ( 'NONE', #217, #136 ) ;
#82 = DIRECTION ( 'NONE',  ( 0.000000000000000000, 0.000000000000000000, 1.000000000000000000 ) ) ;
#83 =( GEOMETRIC_REPRESENTATION_CONTEXT ( 3 ) GLOBAL_UNCERTAINTY_ASSIGNED_CONTEXT ( ( #183 ) ) GLOBAL_UNIT_ASSIGNED_CONTEXT ( ( #176, #106, #216 ) ) REPRESENTATION_CONTEXT ( 'NONE', 'WORKASPACE' ) );
#84 = PRODUCT_DEFINITION_CONTEXT ( 'detailed design', #149, 'design' ) ;
#85 = LINE ( 'NONE', #182, #130 ) ;
#86 =( LENGTH_UNIT ( ) NAMED_UNIT ( * ) SI_UNIT ( .MILLI., .METRE. ) );
#87 = APPLICATION_PROTOCOL_DEFINITION ( 'draft international standard', 'automotive_design', 1998, #53 ) ;
#88 = EDGE_LOOP ( 'NONE', ( #135, #100, #170, #71 ) ) ;
#89 = SHAPE_REPRESENTATION ( '\X2\04210431043e0440043a0430\X0\1', ( #139, #7 ), #203 ) ;
#90 = EDGE_LOOP ( 'NONE', ( #154, #50, #133, #206 ) ) ;
#91 = DIRECTION ( 'NONE',  ( 0.000000000000000000, 1.000000000000000000, 0.000000000000000000 ) ) ;
#92 = VERTEX_POINT ( 'NONE', #60 ) ;
#93 = DIRECTION ( 'NONE',  ( 0.000000000000000000, -0.000000000000000000, -1.000000000000000000 ) ) ;
#94 = CARTESIAN_POINT ( 'NONE',  ( -40.00000000000000000, 4.000000000000000000, 0.000000000000000000 ) ) ;
#95 = CARTESIAN_POINT ( 'NONE',  ( -40.00000000000000000, -4.000000000000000000, 0.000000000000000000 ) ) ;
#96 = CARTESIAN_POINT ( 'NONE',  ( -40.00000000000000000, -4.000000000000000000, 1000.000000000000000 ) ) ;
#97 = DIRECTION ( 'NONE',  ( 0.000000000000000000, 0.000000000000000000, 1.000000000000000000 ) ) ;
#98 = ORIENTED_EDGE ( 'NONE', *, *, #127, .T. ) ;
#99 = VECTOR ( 'NONE', #140, 1000.000000000000000 ) ;
#100 = ORIENTED_EDGE ( 'NONE', *, *, #208, .T. ) ;
#101 = DIRECTION ( 'NONE',  ( -1.000000000000000000, 0.000000000000000000, -0.000000000000000000 ) ) ;
#102 = DIRECTION ( 'NONE',  ( 1.000000000000000000, 0.000000000000000000, 0.000000000000000000 ) ) ;
#103 = PLANE ( 'NONE',  #39 ) ;
#104 = DIRECTION ( 'NONE',  ( -0.000000000000000000, -1.000000000000000000, -0.000000000000000000 ) ) ;
#105 = LINE ( 'NONE', #159, #167 ) ;
#106 =( NAMED_UNIT ( * ) PLANE_ANGLE_UNIT ( ) SI_UNIT ( $, .RADIAN. ) );
#107 = VECTOR ( 'NONE', #214, 1000.000000000000000 ) ;
#108 = SURFACE_STYLE_USAGE ( .BOTH. , #77 ) ;
#109 = FACE_OUTER_BOUND ( 'NONE', #185, .T. ) ;
#110 = PRODUCT_RELATED_PRODUCT_CATEGORY ( 'part', '', ( #36 ) ) ;
#111 = CARTESIAN_POINT ( 'NONE',  ( 40.00000000000000000, -4.000000000000000000, 0.000000000000000000 ) ) ;
#112 = DIRECTION ( 'NONE',  ( 1.000000000000000000, 0.000000000000000000, 0.000000000000000000 ) ) ;
#113 = UNCERTAINTY_MEASURE_WITH_UNIT (LENGTH_MEASURE( 1.000000000000000082E-05 ), #169, 'distance_accuracy_value', 'NONE');
#114 = AXIS2_PLACEMENT_3D ( 'NONE', #188, #31, #101 ) ;
#115 = DIRECTION ( 'NONE',  ( -0.000000000000000000, -1.000000000000000000, -0.000000000000000000 ) ) ;
#116 = EDGE_CURVE ( 'NONE', #92, #171, #6, .T. ) ;
#117 = EDGE_LOOP ( 'NONE', ( #134, #1, #157, #187 ) ) ;
#118 = CONTEXT_DEPENDENT_SHAPE_REPRESENTATION ( #70, #186 ) ;
#119 = ORIENTED_EDGE ( 'NONE', *, *, #165, .T. ) ;
#120 = VECTOR ( 'NONE', #75, 1000.000000000000000 ) ;
#121 = ORIENTED_EDGE ( 'NONE', *, *, #59, .F. ) ;
#122 = DIRECTION ( 'NONE',  ( -0.000000000000000000, -0.000000000000000000, -1.000000000000000000 ) ) ;
#123 = FILL_AREA_STYLE_COLOUR ( '', #175 ) ;
#124 = CARTESIAN_POINT ( 'NONE',  ( -40.00000000000000000, -4.000000000000000000, 1000.000000000000000 ) ) ;
#125 = DIRECTION ( 'NONE',  ( 0.000000000000000000, -1.000000000000000000, 0.000000000000000000 ) ) ;
#126 = ADVANCED_BREP_SHAPE_REPRESENTATION ( '', ( #168, #55 ), #189 ) ;
#127 = EDGE_CURVE ( 'NONE', #205, #210, #105, .T. ) ;
#128 = CARTESIAN_POINT ( 'NONE',  ( -40.00000000000000000, -4.000000000000000000, 0.000000000000000000 ) ) ;
#129 = DIRECTION ( 'NONE',  ( 1.000000000000000000, 0.000000000000000000, 0.000000000000000000 ) ) ;
#130 = VECTOR ( 'NONE', #146, 1000.000000000000000 ) ;
#131 = PRODUCT_CONTEXT ( 'NONE', #196, 'mechanical' ) ;
#132 = CARTESIAN_POINT ( 'NONE',  ( 996.7489301358025386, 1006.409766940549389, 496.8423446063967504 ) ) ;
#133 = ORIENTED_EDGE ( 'NONE', *, *, #178, .F. ) ;
#134 = ORIENTED_EDGE ( 'NONE', *, *, #59, .T. ) ;
#135 = ORIENTED_EDGE ( 'NONE', *, *, #76, .T. ) ;
#136 = VECTOR ( 'NONE', #122, 1000.000000000000000 ) ;
#137 = APPLICATION_PROTOCOL_DEFINITION ( 'draft international standard', 'automotive_design', 1998, #221 ) ;
#138 = ORIENTED_EDGE ( 'NONE', *, *, #76, .F. ) ;
#139 = AXIS2_PLACEMENT_3D ( 'NONE', #200, #82, #66 ) ;
#140 = DIRECTION ( 'NONE',  ( -1.000000000000000000, -0.000000000000000000, -0.000000000000000000 ) ) ;
#141 = CARTESIAN_POINT ( 'NONE',  ( -40.00000000000000000, -4.000000000000000000, 1000.000000000000000 ) ) ;
#142 = LINE ( 'NONE', #95, #107 ) ;
#143 = CARTESIAN_POINT ( 'NONE',  ( -40.00000000000000000, -4.000000000000000000, 1000.000000000000000 ) ) ;
#144 = FACE_OUTER_BOUND ( 'NONE', #117, .T. ) ;
#145 = CARTESIAN_POINT ( 'NONE',  ( -40.00000000000000000, -4.000000000000000000, 1000.000000000000000 ) ) ;
#146 = DIRECTION ( 'NONE',  ( -0.000000000000000000, -0.000000000000000000, -1.000000000000000000 ) ) ;
#147 = PRODUCT_DEFINITION_CONTEXT ( 'detailed design', #53, 'design' ) ;
#148 = CARTESIAN_POINT ( 'NONE',  ( 0.000000000000000000, 0.000000000000000000, 0.000000000000000000 ) ) ;
#149 = APPLICATION_CONTEXT ( 'automotive_design' ) ;
#150 = VECTOR ( 'NONE', #22, 1000.000000000000000 ) ;
#151 = DIRECTION ( 'NONE',  ( -1.000000000000000000, 0.000000000000000000, -0.000000000000000000 ) ) ;
#152 = DIRECTION ( 'NONE',  ( 0.000000000000000000, 0.000000000000000000, 1.000000000000000000 ) ) ;
#153 = EDGE_LOOP ( 'NONE', ( #119, #52, #48, #29 ) ) ;
#154 = ORIENTED_EDGE ( 'NONE', *, *, #116, .T. ) ;
#155 = CLOSED_SHELL ( 'NONE', ( #34, #80, #27, #46, #220, #11 ) ) ;
#156 = VERTEX_POINT ( 'NONE', #195 ) ;
#157 = ORIENTED_EDGE ( 'NONE', *, *, #163, .F. ) ;
#158 = PLANE ( 'NONE',  #114 ) ;
#159 = CARTESIAN_POINT ( 'NONE',  ( 40.00000000000000000, -4.000000000000000000, 1000.000000000000000 ) ) ;
#160 = DIRECTION ( 'NONE',  ( 0.000000000000000000, 0.000000000000000000, 1.000000000000000000 ) ) ;
#161 = VECTOR ( 'NONE', #222, 1000.000000000000000 ) ;
#162 = SURFACE_STYLE_FILL_AREA ( #174 ) ;
#163 = EDGE_CURVE ( 'NONE', #68, #205, #3, .T. ) ;
#164 = DIRECTION ( 'NONE',  ( 0.000000000000000000, 1.000000000000000000, 0.000000000000000000 ) ) ;
#165 = EDGE_CURVE ( 'NONE', #156, #92, #38, .T. ) ;
#166 = UNCERTAINTY_MEASURE_WITH_UNIT (LENGTH_MEASURE( 1.000000000000000082E-05 ), #86, 'distance_accuracy_value', 'NONE');
#167 = VECTOR ( 'NONE', #19, 1000.000000000000000 ) ;
#168 = MANIFOLD_SOLID_BREP ( '\X2\0411043e0431044b0448043a0430\X0\-\X2\0412044b0442044f043d04430442044c\X0\1', #155 ) ;
#169 =( LENGTH_UNIT ( ) NAMED_UNIT ( * ) SI_UNIT ( .MILLI., .METRE. ) );
#170 = ORIENTED_EDGE ( 'NONE', *, *, #178, .T. ) ;
#171 = VERTEX_POINT ( 'NONE', #128 ) ;
#172 = VERTEX_POINT ( 'NONE', #198 ) ;
#173 = LINE ( 'NONE', #143, #201 ) ;
#174 = FILL_AREA_STYLE ('',( #123 ) ) ;
#175 = COLOUR_RGB ( '',0.7921568627450980005, 0.8196078431372548767, 0.9333333333333333481 ) ;
#176 =( LENGTH_UNIT ( ) NAMED_UNIT ( * ) SI_UNIT ( .MILLI., .METRE. ) );
#177 = AXIS2_PLACEMENT_3D ( 'NONE', #63, #152, #129 ) ;
#178 = EDGE_CURVE ( 'NONE', #172, #68, #211, .T. ) ;
#179 = PLANE ( 'NONE',  #64 ) ;
#180 = DIRECTION ( 'NONE',  ( 0.000000000000000000, 0.000000000000000000, -1.000000000000000000 ) ) ;
#181 = SHAPE_REPRESENTATION_RELATIONSHIP ( 'NONE' , 'NONE' ,  #8, #126 ) ;
#182 = CARTESIAN_POINT ( 'NONE',  ( -40.00000000000000000, 4.000000000000000000, 1000.000000000000000 ) ) ;
#183 = UNCERTAINTY_MEASURE_WITH_UNIT (LENGTH_MEASURE( 1.000000000000000082E-05 ), #176, 'distance_accuracy_value', 'NONE');
#184 =( NAMED_UNIT ( * ) PLANE_ANGLE_UNIT ( ) SI_UNIT ( $, .RADIAN. ) );
#185 = EDGE_LOOP ( 'NONE', ( #209, #121, #73, #56 ) ) ;
#186 = PRODUCT_DEFINITION_SHAPE ( 'NONE', 'NONE',  #224 ) ;
#187 = ORIENTED_EDGE ( 'NONE', *, *, #78, .T. ) ;
#188 = CARTESIAN_POINT ( 'NONE',  ( 0.000000000000000000, 0.000000000000000000, 0.000000000000000000 ) ) ;
#189 =( GEOMETRIC_REPRESENTATION_CONTEXT ( 3 ) GLOBAL_UNCERTAINTY_ASSIGNED_CONTEXT ( ( #166 ) ) GLOBAL_UNIT_ASSIGNED_CONTEXT ( ( #86, #23, #10 ) ) REPRESENTATION_CONTEXT ( 'NONE', 'WORKASPACE' ) );
#190 = LINE ( 'NONE', #16, #215 ) ;
#191 = EDGE_CURVE ( 'NONE', #172, #92, #85, .T. ) ;
#192 = PRODUCT_DEFINITION ( 'UNKNOWN', '', #41, #84 ) ;
#193 = FACE_OUTER_BOUND ( 'NONE', #67, .T. ) ;
#194 = CARTESIAN_POINT ( 'NONE',  ( -40.00000000000000000, -4.000000000000000000, 0.000000000000000000 ) ) ;
#195 = CARTESIAN_POINT ( 'NONE',  ( 40.00000000000000000, 4.000000000000000000, 0.000000000000000000 ) ) ;
#196 = APPLICATION_CONTEXT ( 'automotive_design' ) ;
#197 = STYLED_ITEM ( 'NONE', ( #58 ), #168 ) ;
#198 = CARTESIAN_POINT ( 'NONE',  ( -40.00000000000000000, 4.000000000000000000, 1000.000000000000000 ) ) ;
#199 =( NAMED_UNIT ( * ) SI_UNIT ( $, .STERADIAN. ) SOLID_ANGLE_UNIT ( ) );
#200 = CARTESIAN_POINT ( 'NONE',  ( 0.000000000000000000, 0.000000000000000000, 0.000000000000000000 ) ) ;
#201 = VECTOR ( 'NONE', #35, 1000.000000000000000 ) ;
#202 = APPLICATION_PROTOCOL_DEFINITION ( 'draft international standard', 'automotive_design', 1998, #149 ) ;
#203 =( GEOMETRIC_REPRESENTATION_CONTEXT ( 3 ) GLOBAL_UNCERTAINTY_ASSIGNED_CONTEXT ( ( #113 ) ) GLOBAL_UNIT_ASSIGNED_CONTEXT ( ( #169, #184, #199 ) ) REPRESENTATION_CONTEXT ( 'NONE', 'WORKASPACE' ) );
#204 = DIRECTION ( 'NONE',  ( 0.000000000000000000, 0.000000000000000000, 1.000000000000000000 ) ) ;
#205 = VERTEX_POINT ( 'NONE', #42 ) ;
#206 = ORIENTED_EDGE ( 'NONE', *, *, #191, .T. ) ;
#207 = AXIS2_PLACEMENT_3D ( 'NONE', #96, #164, #4 ) ;
#208 = EDGE_CURVE ( 'NONE', #223, #172, #218, .T. ) ;
#209 = ORIENTED_EDGE ( 'NONE', *, *, #17, .F. ) ;
#210 = VERTEX_POINT ( 'NONE', #111 ) ;
#211 = LINE ( 'NONE', #145, #5 ) ;
#212 = PRODUCT_DEFINITION_SHAPE ( 'NONE', 'NONE',  #47 ) ;
#213 = FACE_OUTER_BOUND ( 'NONE', #153, .T. ) ;
#214 = DIRECTION ( 'NONE',  ( 1.000000000000000000, 0.000000000000000000, 0.000000000000000000 ) ) ;
#215 = VECTOR ( 'NONE', #91, 1000.000000000000000 ) ;
#216 =( NAMED_UNIT ( * ) SI_UNIT ( $, .STERADIAN. ) SOLID_ANGLE_UNIT ( ) );
#217 = CARTESIAN_POINT ( 'NONE',  ( 40.00000000000000000, 4.000000000000000000, 1000.000000000000000 ) ) ;
#218 = LINE ( 'NONE', #43, #161 ) ;
#219 = CARTESIAN_POINT ( 'NONE',  ( 40.00000000000000000, 4.000000000000000000, 1000.000000000000000 ) ) ;
#220 = ADVANCED_FACE ( 'NONE', ( #24 ), #179, .F. ) ;
#221 = APPLICATION_CONTEXT ( 'automotive_design' ) ;
#222 = DIRECTION ( 'NONE',  ( -1.000000000000000000, -0.000000000000000000, -0.000000000000000000 ) ) ;
#223 = VERTEX_POINT ( 'NONE', #219 ) ;
#224 = NEXT_ASSEMBLY_USAGE_OCCURRENCE ( 'NAUO1', ' ', ' ', #192, #47, $ ) ;
ENDSEC;
END-ISO-10303-21;
