ISO-10303-21;
HEADER;
FILE_DESCRIPTION (( 'STEP AP214' ),
    '1' );
FILE_NAME ('Ñáîðêà8.STEP',
    '2025-01-29T14:37:07',
    ( '' ),
    ( '' ),
    'SwSTEP 2.0',
    'SolidWorks 2024',
    '' );
FILE_SCHEMA (( 'AUTOMOTIVE_DESIGN' ));
ENDSEC;

DATA;
#1 = DIRECTION ( 'NONE',  ( 1.000000000000000000, 0.000000000000000000, 0.000000000000000000 ) ) ;
#2 = STYLED_ITEM ( 'NONE', ( #192 ), #113 ) ;
#3 = EDGE_CURVE ( 'NONE', #115, #126, #216, .T. ) ;
#4 = DIRECTION ( 'NONE',  ( 1.000000000000000000, 0.000000000000000000, 0.000000000000000000 ) ) ;
#5 = APPLICATION_CONTEXT ( 'automotive_design' ) ;
#6 = ADVANCED_BREP_SHAPE_REPRESENTATION ( '', ( #113, #42 ), #163 ) ;
#7 = FACE_OUTER_BOUND ( 'NONE', #111, .T. ) ;
#8 = VECTOR ( 'NONE', #129, 1000.000000000000000 ) ;
#9 = PLANE ( 'NONE',  #88 ) ;
#10 = ORIENTED_EDGE ( 'NONE', *, *, #119, .F. ) ;
#11 = FACE_OUTER_BOUND ( 'NONE', #198, .T. ) ;
#12 = EDGE_LOOP ( 'NONE', ( #186, #31, #27, #30 ) ) ;
#13 = SURFACE_SIDE_STYLE ('',( #103 ) ) ;
#14 = UNCERTAINTY_MEASURE_WITH_UNIT (LENGTH_MEASURE( 1.000000000000000082E-05 ), #70, 'distance_accuracy_value', 'NONE');
#15 = AXIS2_PLACEMENT_3D ( 'NONE', #105, #174, #17 ) ;
#16 = CARTESIAN_POINT ( 'NONE',  ( -10.00000000000000000, -10.00000000000000000, 1000.000000000000000 ) ) ;
#17 = DIRECTION ( 'NONE',  ( 0.000000000000000000, 0.000000000000000000, 1.000000000000000000 ) ) ;
#18 = CARTESIAN_POINT ( 'NONE',  ( -10.00000000000000000, -10.00000000000000000, 1000.000000000000000 ) ) ;
#19 = PRODUCT_CONTEXT ( 'NONE', #5, 'mechanical' ) ;
#20 = EDGE_CURVE ( 'NONE', #147, #126, #112, .T. ) ;
#21 = PLANE ( 'NONE',  #197 ) ;
#22 = CARTESIAN_POINT ( 'NONE',  ( 0.000000000000000000, 0.000000000000000000, 0.000000000000000000 ) ) ;
#23 = CLOSED_SHELL ( 'NONE', ( #156, #188, #151, #56, #63, #72 ) ) ;
#24 = SHAPE_REPRESENTATION ( 'RS20 \X2\041f044004430442043e043a\X0\ \X2\0430043b044e043c0438043d043804350432044b0439\X0\, \X2\043a043204300434044004300442\X0\ 20x20 (\X2\0410043d\X0\. \X2\044104350440043504310440043e\X0\)_00', ( #42 ), #163 ) ;
#25 = PRODUCT_CONTEXT ( 'NONE', #117, 'mechanical' ) ;
#26 = ORIENTED_EDGE ( 'NONE', *, *, #130, .T. ) ;
#27 = ORIENTED_EDGE ( 'NONE', *, *, #130, .F. ) ;
#28 = VECTOR ( 'NONE', #101, 1000.000000000000000 ) ;
#29 = ORIENTED_EDGE ( 'NONE', *, *, #81, .T. ) ;
#30 = ORIENTED_EDGE ( 'NONE', *, *, #3, .F. ) ;
#31 = ORIENTED_EDGE ( 'NONE', *, *, #78, .F. ) ;
#32 = CARTESIAN_POINT ( 'NONE',  ( -10.00000000000000000, -10.00000000000000000, 1000.000000000000000 ) ) ;
#33 = CARTESIAN_POINT ( 'NONE',  ( 10.00000000000000000, -10.00000000000000000, 1000.000000000000000 ) ) ;
#34 = PRODUCT ( '\X2\04210431043e0440043a0430\X0\8', '\X2\04210431043e0440043a0430\X0\8', '', ( #19 ) ) ;
#35 = CARTESIAN_POINT ( 'NONE',  ( -10.00000000000000000, 10.00000000000000000, 0.000000000000000000 ) ) ;
#36 =( NAMED_UNIT ( * ) PLANE_ANGLE_UNIT ( ) SI_UNIT ( $, .RADIAN. ) );
#37 = DIRECTION ( 'NONE',  ( 1.000000000000000000, 0.000000000000000000, 0.000000000000000000 ) ) ;
#38 = AXIS2_PLACEMENT_3D ( 'NONE', #86, #191, #135 ) ;
#39 =( LENGTH_UNIT ( ) NAMED_UNIT ( * ) SI_UNIT ( .MILLI., .METRE. ) );
#40 = ORIENTED_EDGE ( 'NONE', *, *, #20, .F. ) ;
#41 = VERTEX_POINT ( 'NONE', #97 ) ;
#42 = AXIS2_PLACEMENT_3D ( 'NONE', #211, #58, #57 ) ;
#43 = ORIENTED_EDGE ( 'NONE', *, *, #176, .F. ) ;
#44 = ORIENTED_EDGE ( 'NONE', *, *, #51, .T. ) ;
#45 =( GEOMETRIC_REPRESENTATION_CONTEXT ( 3 ) GLOBAL_UNCERTAINTY_ASSIGNED_CONTEXT ( ( #212 ) ) GLOBAL_UNIT_ASSIGNED_CONTEXT ( ( #171, #36, #204 ) ) REPRESENTATION_CONTEXT ( 'NONE', 'WORKASPACE' ) );
#46 = DIRECTION ( 'NONE',  ( 1.000000000000000000, 0.000000000000000000, 0.000000000000000000 ) ) ;
#47 = DIRECTION ( 'NONE',  ( 1.000000000000000000, 0.000000000000000000, 0.000000000000000000 ) ) ;
#48 = PLANE ( 'NONE',  #15 ) ;
#49 = AXIS2_PLACEMENT_3D ( 'NONE', #98, #148, #145 ) ;
#50 = LINE ( 'NONE', #137, #221 ) ;
#51 = EDGE_CURVE ( 'NONE', #168, #217, #152, .T. ) ;
#52 = DIRECTION ( 'NONE',  ( 0.000000000000000000, 0.000000000000000000, -1.000000000000000000 ) ) ;
#53 = PRODUCT_RELATED_PRODUCT_CATEGORY ( 'part', '', ( #133 ) ) ;
#54 = PRODUCT_DEFINITION_CONTEXT ( 'detailed design', #92, 'design' ) ;
#55 = CARTESIAN_POINT ( 'NONE',  ( -10.00000000000000000, 10.00000000000000000, 1000.000000000000000 ) ) ;
#56 = ADVANCED_FACE ( 'NONE', ( #7 ), #166, .F. ) ;
#57 = DIRECTION ( 'NONE',  ( 1.000000000000000000, 0.000000000000000000, 0.000000000000000000 ) ) ;
#58 = DIRECTION ( 'NONE',  ( 0.000000000000000000, 0.000000000000000000, 1.000000000000000000 ) ) ;
#59 = ORIENTED_EDGE ( 'NONE', *, *, #138, .F. ) ;
#60 = ORIENTED_EDGE ( 'NONE', *, *, #94, .T. ) ;
#61 = ORIENTED_EDGE ( 'NONE', *, *, #81, .F. ) ;
#62 = CARTESIAN_POINT ( 'NONE',  ( -10.00000000000000000, 10.00000000000000000, 1000.000000000000000 ) ) ;
#63 = ADVANCED_FACE ( 'NONE', ( #215 ), #9, .F. ) ;
#64 = DIRECTION ( 'NONE',  ( -0.000000000000000000, -1.000000000000000000, -0.000000000000000000 ) ) ;
#65 = PRODUCT_DEFINITION_CONTEXT ( 'detailed design', #82, 'design' ) ;
#66 = FILL_AREA_STYLE_COLOUR ( '', #214 ) ;
#67 = DIRECTION ( 'NONE',  ( -1.000000000000000000, 0.000000000000000000, -0.000000000000000000 ) ) ;
#68 = VECTOR ( 'NONE', #79, 1000.000000000000000 ) ;
#69 = FILL_AREA_STYLE ('',( #66 ) ) ;
#70 =( LENGTH_UNIT ( ) NAMED_UNIT ( * ) SI_UNIT ( .MILLI., .METRE. ) );
#71 = SHAPE_REPRESENTATION_RELATIONSHIP ( 'NONE' , 'NONE' ,  #24, #6 ) ;
#72 = ADVANCED_FACE ( 'NONE', ( #222 ), #118, .T. ) ;
#73 =( NAMED_UNIT ( * ) SI_UNIT ( $, .STERADIAN. ) SOLID_ANGLE_UNIT ( ) );
#74 = FACE_OUTER_BOUND ( 'NONE', #199, .T. ) ;
#75 = VECTOR ( 'NONE', #169, 1000.000000000000000 ) ;
#76 = ORIENTED_EDGE ( 'NONE', *, *, #138, .T. ) ;
#77 = VERTEX_POINT ( 'NONE', #207 ) ;
#78 = EDGE_CURVE ( 'NONE', #217, #41, #131, .T. ) ;
#79 = DIRECTION ( 'NONE',  ( -1.000000000000000000, -0.000000000000000000, -0.000000000000000000 ) ) ;
#80 = CARTESIAN_POINT ( 'NONE',  ( -10.00000000000000000, -10.00000000000000000, 0.000000000000000000 ) ) ;
#81 = EDGE_CURVE ( 'NONE', #77, #41, #170, .T. ) ;
#82 = APPLICATION_CONTEXT ( 'automotive_design' ) ;
#83 = DIRECTION ( 'NONE',  ( 1.000000000000000000, 0.000000000000000000, 0.000000000000000000 ) ) ;
#84 = VECTOR ( 'NONE', #195, 1000.000000000000000 ) ;
#85 = DIRECTION ( 'NONE',  ( 0.000000000000000000, 0.000000000000000000, -1.000000000000000000 ) ) ;
#86 = CARTESIAN_POINT ( 'NONE',  ( 0.000000000000000000, 0.000000000000000000, 0.000000000000000000 ) ) ;
#87 = LINE ( 'NONE', #16, #179 ) ;
#88 = AXIS2_PLACEMENT_3D ( 'NONE', #154, #52, #67 ) ;
#89 = DIRECTION ( 'NONE',  ( 0.000000000000000000, -0.000000000000000000, -1.000000000000000000 ) ) ;
#90 = CARTESIAN_POINT ( 'NONE',  ( -10.00000000000000000, 10.00000000000000000, 1000.000000000000000 ) ) ;
#91 = CARTESIAN_POINT ( 'NONE',  ( 0.000000000000000000, 0.000000000000000000, 0.000000000000000000 ) ) ;
#92 = APPLICATION_CONTEXT ( 'automotive_design' ) ;
#93 = AXIS2_PLACEMENT_3D ( 'NONE', #91, #140, #1 ) ;
#94 = EDGE_CURVE ( 'NONE', #127, #115, #50, .T. ) ;
#95 = APPLICATION_PROTOCOL_DEFINITION ( 'draft international standard', 'automotive_design', 1998, #92 ) ;
#96 = CONTEXT_DEPENDENT_SHAPE_REPRESENTATION ( #173, #108 ) ;
#97 = CARTESIAN_POINT ( 'NONE',  ( 10.00000000000000000, -10.00000000000000000, 0.000000000000000000 ) ) ;
#98 = CARTESIAN_POINT ( 'NONE',  ( -10.00000000000000000, -10.00000000000000000, 1000.000000000000000 ) ) ;
#99 = ORIENTED_EDGE ( 'NONE', *, *, #20, .T. ) ;
#100 = PRODUCT_DEFINITION ( 'UNKNOWN', '', #136, #54 ) ;
#101 = DIRECTION ( 'NONE',  ( -0.000000000000000000, -0.000000000000000000, -1.000000000000000000 ) ) ;
#102 = FACE_OUTER_BOUND ( 'NONE', #201, .T. ) ;
#103 = SURFACE_STYLE_FILL_AREA ( #69 ) ;
#104 = VECTOR ( 'NONE', #83, 1000.000000000000000 ) ;
#105 = CARTESIAN_POINT ( 'NONE',  ( 10.00000000000000000, -10.00000000000000000, 1000.000000000000000 ) ) ;
#106 = DIRECTION ( 'NONE',  ( 0.000000000000000000, 1.000000000000000000, 0.000000000000000000 ) ) ;
#107 =( NAMED_UNIT ( * ) PLANE_ANGLE_UNIT ( ) SI_UNIT ( $, .RADIAN. ) );
#108 = PRODUCT_DEFINITION_SHAPE ( 'NONE', 'NONE',  #224 ) ;
#109 = LINE ( 'NONE', #90, #181 ) ;
#110 =( NAMED_UNIT ( * ) PLANE_ANGLE_UNIT ( ) SI_UNIT ( $, .RADIAN. ) );
#111 = EDGE_LOOP ( 'NONE', ( #183, #61, #59, #44 ) ) ;
#112 = LINE ( 'NONE', #62, #8 ) ;
#113 = MANIFOLD_SOLID_BREP ( '\X2\0411043e0431044b0448043a0430\X0\-\X2\0412044b0442044f043d04430442044c\X0\1', #23 ) ;
#114 = CARTESIAN_POINT ( 'NONE',  ( -10.00000000000000000, 10.00000000000000000, 0.000000000000000000 ) ) ;
#115 = VERTEX_POINT ( 'NONE', #220 ) ;
#116 = CARTESIAN_POINT ( 'NONE',  ( 10.00000000000000000, -10.00000000000000000, 0.000000000000000000 ) ) ;
#117 = APPLICATION_CONTEXT ( 'automotive_design' ) ;
#118 = PLANE ( 'NONE',  #38 ) ;
#119 = EDGE_CURVE ( 'NONE', #147, #168, #87, .T. ) ;
#120 = CARTESIAN_POINT ( 'NONE',  ( -10.00000000000000000, -10.00000000000000000, 1000.000000000000000 ) ) ;
#121 = DIRECTION ( 'NONE',  ( 0.000000000000000000, 0.000000000000000000, 1.000000000000000000 ) ) ;
#122 = DIRECTION ( 'NONE',  ( 0.000000000000000000, -1.000000000000000000, 0.000000000000000000 ) ) ;
#123 =( NAMED_UNIT ( * ) SI_UNIT ( $, .STERADIAN. ) SOLID_ANGLE_UNIT ( ) );
#124 = VECTOR ( 'NONE', #106, 1000.000000000000000 ) ;
#125 = DIRECTION ( 'NONE',  ( 0.000000000000000000, 0.000000000000000000, 1.000000000000000000 ) ) ;
#126 = VERTEX_POINT ( 'NONE', #35 ) ;
#127 = VERTEX_POINT ( 'NONE', #205 ) ;
#128 = ORIENTED_EDGE ( 'NONE', *, *, #94, .F. ) ;
#129 = DIRECTION ( 'NONE',  ( -0.000000000000000000, -0.000000000000000000, -1.000000000000000000 ) ) ;
#130 = EDGE_CURVE ( 'NONE', #126, #217, #134, .T. ) ;
#131 = LINE ( 'NONE', #159, #104 ) ;
#132 = DIRECTION ( 'NONE',  ( -0.000000000000000000, -0.000000000000000000, -1.000000000000000000 ) ) ;
#133 = PRODUCT ( 'RS20 \X2\041f044004430442043e043a\X0\ \X2\0430043b044e043c0438043d043804350432044b0439\X0\, \X2\043a043204300434044004300442\X0\ 20x20 (\X2\0410043d\X0\. \X2\044104350440043504310440043e\X0\)_00', 'RS20 \X2\041f044004430442043e043a\X0\ \X2\0430043b044e043c0438043d043804350432044b0439\X0\, \X2\043a043204300434044004300442\X0\ 20x20 (\X2\0410043d\X0\. \X2\044104350440043504310440043e\X0\)_00', '', ( #25 ) ) ;
#134 = LINE ( 'NONE', #80, #75 ) ;
#135 = DIRECTION ( 'NONE',  ( -1.000000000000000000, 0.000000000000000000, -0.000000000000000000 ) ) ;
#136 = PRODUCT_DEFINITION_FORMATION_WITH_SPECIFIED_SOURCE ( 'ANY', '', #133, .NOT_KNOWN. ) ;
#137 = CARTESIAN_POINT ( 'NONE',  ( 10.00000000000000000, 10.00000000000000000, 1000.000000000000000 ) ) ;
#138 = EDGE_CURVE ( 'NONE', #168, #77, #157, .T. ) ;
#139 = PRODUCT_DEFINITION_SHAPE ( 'NONE', 'NONE',  #100 ) ;
#140 = DIRECTION ( 'NONE',  ( 0.000000000000000000, 0.000000000000000000, 1.000000000000000000 ) ) ;
#141 = APPLICATION_PROTOCOL_DEFINITION ( 'draft international standard', 'automotive_design', 1998, #82 ) ;
#142 = CARTESIAN_POINT ( 'NONE',  ( 10.00000000000000000, -10.00000000000000000, 1000.000000000000000 ) ) ;
#143 = ITEM_DEFINED_TRANSFORMATION ( 'NONE', 'NONE', #208,  #42 ) ;
#144 = ORIENTED_EDGE ( 'NONE', *, *, #146, .T. ) ;
#145 = DIRECTION ( 'NONE',  ( 0.000000000000000000, -0.000000000000000000, 1.000000000000000000 ) ) ;
#146 = EDGE_CURVE ( 'NONE', #41, #115, #206, .T. ) ;
#147 = VERTEX_POINT ( 'NONE', #189 ) ;
#148 = DIRECTION ( 'NONE',  ( 0.000000000000000000, 1.000000000000000000, 0.000000000000000000 ) ) ;
#149 = PRODUCT_DEFINITION ( 'UNKNOWN', '', #218, #65 ) ;
#150 = AXIS2_PLACEMENT_3D ( 'NONE', #18, #47, #85 ) ;
#151 = ADVANCED_FACE ( 'NONE', ( #102 ), #177, .F. ) ;
#152 = LINE ( 'NONE', #32, #28 ) ;
#153 = ORIENTED_EDGE ( 'NONE', *, *, #196, .T. ) ;
#154 = CARTESIAN_POINT ( 'NONE',  ( 0.000000000000000000, 0.000000000000000000, 1000.000000000000000 ) ) ;
#155 = VECTOR ( 'NONE', #46, 1000.000000000000000 ) ;
#156 = ADVANCED_FACE ( 'NONE', ( #11 ), #48, .F. ) ;
#157 = LINE ( 'NONE', #120, #155 ) ;
#158 = CARTESIAN_POINT ( 'NONE',  ( -10.00000000000000000, -10.00000000000000000, 1000.000000000000000 ) ) ;
#159 = CARTESIAN_POINT ( 'NONE',  ( -10.00000000000000000, -10.00000000000000000, 0.000000000000000000 ) ) ;
#160 = PRODUCT_DEFINITION_SHAPE ( 'NONE', 'NONE',  #149 ) ;
#161 = CARTESIAN_POINT ( 'NONE',  ( -10.00000000000000000, -10.00000000000000000, 0.000000000000000000 ) ) ;
#162 = DIRECTION ( 'NONE',  ( -1.000000000000000000, -0.000000000000000000, -0.000000000000000000 ) ) ;
#163 =( GEOMETRIC_REPRESENTATION_CONTEXT ( 3 ) GLOBAL_UNCERTAINTY_ASSIGNED_CONTEXT ( ( #190 ) ) GLOBAL_UNIT_ASSIGNED_CONTEXT ( ( #39, #107, #123 ) ) REPRESENTATION_CONTEXT ( 'NONE', 'WORKASPACE' ) );
#164 = SHAPE_DEFINITION_REPRESENTATION ( #139, #24 ) ;
#165 = MECHANICAL_DESIGN_GEOMETRIC_PRESENTATION_REPRESENTATION (  '', ( #2 ), #45 ) ;
#166 = PLANE ( 'NONE',  #49 ) ;
#167 = EDGE_LOOP ( 'NONE', ( #202, #153, #219, #76 ) ) ;
#168 = VERTEX_POINT ( 'NONE', #158 ) ;
#169 = DIRECTION ( 'NONE',  ( -0.000000000000000000, -1.000000000000000000, -0.000000000000000000 ) ) ;
#170 = LINE ( 'NONE', #33, #84 ) ;
#171 =( LENGTH_UNIT ( ) NAMED_UNIT ( * ) SI_UNIT ( .MILLI., .METRE. ) );
#172 = AXIS2_PLACEMENT_3D ( 'NONE', #22, #121, #4 ) ;
#173 =( REPRESENTATION_RELATIONSHIP ('NONE','NONE', #209, #24 ) REPRESENTATION_RELATIONSHIP_WITH_TRANSFORMATION ( #143 )SHAPE_REPRESENTATION_RELATIONSHIP( ) );
#174 = DIRECTION ( 'NONE',  ( -1.000000000000000000, 0.000000000000000000, 0.000000000000000000 ) ) ;
#175 = PRODUCT_RELATED_PRODUCT_CATEGORY ( 'part', '', ( #34 ) ) ;
#176 = EDGE_CURVE ( 'NONE', #77, #127, #223, .T. ) ;
#177 = PLANE ( 'NONE',  #150 ) ;
#178 = APPLICATION_PROTOCOL_DEFINITION ( 'draft international standard', 'automotive_design', 1998, #5 ) ;
#179 = VECTOR ( 'NONE', #64, 1000.000000000000000 ) ;
#180 = DIRECTION ( 'NONE',  ( 0.000000000000000000, 1.000000000000000000, 0.000000000000000000 ) ) ;
#181 = VECTOR ( 'NONE', #162, 1000.000000000000000 ) ;
#182 = SHAPE_DEFINITION_REPRESENTATION ( #160, #209 ) ;
#183 = ORIENTED_EDGE ( 'NONE', *, *, #78, .T. ) ;
#184 = ORIENTED_EDGE ( 'NONE', *, *, #196, .F. ) ;
#185 = PRESENTATION_LAYER_ASSIGNMENT (  '', '', ( #2 ) ) ;
#186 = ORIENTED_EDGE ( 'NONE', *, *, #146, .F. ) ;
#187 = ORIENTED_EDGE ( 'NONE', *, *, #51, .F. ) ;
#188 = ADVANCED_FACE ( 'NONE', ( #74 ), #21, .F. ) ;
#189 = CARTESIAN_POINT ( 'NONE',  ( -10.00000000000000000, 10.00000000000000000, 1000.000000000000000 ) ) ;
#190 = UNCERTAINTY_MEASURE_WITH_UNIT (LENGTH_MEASURE( 1.000000000000000082E-05 ), #39, 'distance_accuracy_value', 'NONE');
#191 = DIRECTION ( 'NONE',  ( 0.000000000000000000, 0.000000000000000000, -1.000000000000000000 ) ) ;
#192 = PRESENTATION_STYLE_ASSIGNMENT (( #194 ) ) ;
#193 = VECTOR ( 'NONE', #180, 1000.000000000000000 ) ;
#194 = SURFACE_STYLE_USAGE ( .BOTH. , #13 ) ;
#195 = DIRECTION ( 'NONE',  ( -0.000000000000000000, -0.000000000000000000, -1.000000000000000000 ) ) ;
#196 = EDGE_CURVE ( 'NONE', #127, #147, #109, .T. ) ;
#197 = AXIS2_PLACEMENT_3D ( 'NONE', #55, #122, #89 ) ;
#198 = EDGE_LOOP ( 'NONE', ( #144, #128, #43, #29 ) ) ;
#199 = EDGE_LOOP ( 'NONE', ( #203, #40, #184, #60 ) ) ;
#200 =( GEOMETRIC_REPRESENTATION_CONTEXT ( 3 ) GLOBAL_UNCERTAINTY_ASSIGNED_CONTEXT ( ( #14 ) ) GLOBAL_UNIT_ASSIGNED_CONTEXT ( ( #70, #110, #73 ) ) REPRESENTATION_CONTEXT ( 'NONE', 'WORKASPACE' ) );
#201 = EDGE_LOOP ( 'NONE', ( #26, #187, #10, #99 ) ) ;
#202 = ORIENTED_EDGE ( 'NONE', *, *, #176, .T. ) ;
#203 = ORIENTED_EDGE ( 'NONE', *, *, #3, .T. ) ;
#204 =( NAMED_UNIT ( * ) SI_UNIT ( $, .STERADIAN. ) SOLID_ANGLE_UNIT ( ) );
#205 = CARTESIAN_POINT ( 'NONE',  ( 10.00000000000000000, 10.00000000000000000, 1000.000000000000000 ) ) ;
#206 = LINE ( 'NONE', #116, #124 ) ;
#207 = CARTESIAN_POINT ( 'NONE',  ( 10.00000000000000000, -10.00000000000000000, 1000.000000000000000 ) ) ;
#208 = AXIS2_PLACEMENT_3D ( 'NONE', #210, #125, #37 ) ;
#209 = SHAPE_REPRESENTATION ( '\X2\04210431043e0440043a0430\X0\8', ( #93, #208 ), #200 ) ;
#210 = CARTESIAN_POINT ( 'NONE',  ( 996.7539758729768664, 1006.264176258616430, 496.9828658904978056 ) ) ;
#211 = CARTESIAN_POINT ( 'NONE',  ( 0.000000000000000000, 0.000000000000000000, 0.000000000000000000 ) ) ;
#212 = UNCERTAINTY_MEASURE_WITH_UNIT (LENGTH_MEASURE( 1.000000000000000082E-05 ), #171, 'distance_accuracy_value', 'NONE');
#213 = APPLICATION_PROTOCOL_DEFINITION ( 'draft international standard', 'automotive_design', 1998, #117 ) ;
#214 = COLOUR_RGB ( '',0.7921568627450980005, 0.8196078431372548767, 0.9333333333333333481 ) ;
#215 = FACE_OUTER_BOUND ( 'NONE', #167, .T. ) ;
#216 = LINE ( 'NONE', #114, #68 ) ;
#217 = VERTEX_POINT ( 'NONE', #161 ) ;
#218 = PRODUCT_DEFINITION_FORMATION_WITH_SPECIFIED_SOURCE ( 'ANY', '', #34, .NOT_KNOWN. ) ;
#219 = ORIENTED_EDGE ( 'NONE', *, *, #119, .T. ) ;
#220 = CARTESIAN_POINT ( 'NONE',  ( 10.00000000000000000, 10.00000000000000000, 0.000000000000000000 ) ) ;
#221 = VECTOR ( 'NONE', #132, 1000.000000000000000 ) ;
#222 = FACE_OUTER_BOUND ( 'NONE', #12, .T. ) ;
#223 = LINE ( 'NONE', #142, #193 ) ;
#224 = NEXT_ASSEMBLY_USAGE_OCCURRENCE ( 'NAUO1', ' ', ' ', #149, #100, $ ) ;
ENDSEC;
END-ISO-10303-21;
