ISO-10303-21;
HEADER;
FILE_DESCRIPTION (( 'STEP AP214' ),
    '1' );
FILE_NAME ('B690 ×åðíàÿ ðåçèíîâàÿ íîæêà Ô25.STEP',
    '2025-05-29T11:01:09',
    ( '' ),
    ( '' ),
    'SwSTEP 2.0',
    'SolidWorks 2025',
    '' );
FILE_SCHEMA (( 'AUTOMOTIVE_DESIGN' ));
ENDSEC;

DATA;
#1 = ORIENTED_EDGE ( 'NONE', *, *, #118, .T. ) ;
#2 = PLANE ( 'NONE',  #21 ) ;
#3 = EDGE_CURVE ( 'NONE', #35, #179, #273, .T. ) ;
#4 = CIRCLE ( 'NONE', #236, 4.500000000000000888 ) ;
#5 = ORIENTED_EDGE ( 'NONE', *, *, #90, .T. ) ;
#6 = EDGE_LOOP ( 'NONE', ( #148, #250, #96, #1 ) ) ;
#7 = CARTESIAN_POINT ( 'NONE',  ( 5.510910596163088569E-16, 12.99999999999999822, 4.500000000000000000 ) ) ;
#8 = ORIENTED_EDGE ( 'NONE', *, *, #150, .T. ) ;
#9 = CARTESIAN_POINT ( 'NONE',  ( 0.000000000000000000, 12.99999999999999822, 0.000000000000000000 ) ) ;
#10 = CLOSED_SHELL ( 'NONE', ( #50, #92, #248, #278, #134, #127, #231, #72, #192 ) ) ;
#11 = ORIENTED_EDGE ( 'NONE', *, *, #268, .F. ) ;
#12 = EDGE_LOOP ( 'NONE', ( #31, #222 ) ) ;
#13 = DIRECTION ( 'NONE',  ( -0.000000000000000000, -1.000000000000000000, -0.000000000000000000 ) ) ;
#14 = CARTESIAN_POINT ( 'NONE',  ( 0.000000000000000000, -39.21061550759392844, -2.750000000000000000 ) ) ;
#15 = AXIS2_PLACEMENT_3D ( 'NONE', #40, #228, #210 ) ;
#16 =( NAMED_UNIT ( * ) SI_UNIT ( $, .STERADIAN. ) SOLID_ANGLE_UNIT ( ) );
#17 = CARTESIAN_POINT ( 'NONE',  ( 0.000000000000000000, 6.599999999999994316, 0.000000000000000000 ) ) ;
#18 = DIRECTION ( 'NONE',  ( 0.000000000000000000, -0.9900255059338768371, -0.1408882450752055315 ) ) ;
#19 = DIRECTION ( 'NONE',  ( -0.000000000000000000, -1.000000000000000000, -0.000000000000000000 ) ) ;
#20 = VECTOR ( 'NONE', #157, 1000.000000000000000 ) ;
#21 = AXIS2_PLACEMENT_3D ( 'NONE', #186, #141, #221 ) ;
#22 = DIRECTION ( 'NONE',  ( -0.000000000000000000, -1.000000000000000000, -0.000000000000000000 ) ) ;
#23 = ORIENTED_EDGE ( 'NONE', *, *, #105, .T. ) ;
#24 = PRODUCT_DEFINITION ( 'UNKNOWN', '', #136, #122 ) ;
#25 = DIRECTION ( 'NONE',  ( 0.000000000000000000, 0.000000000000000000, -1.000000000000000000 ) ) ;
#26 = PLANE ( 'NONE',  #271 ) ;
#27 = AXIS2_PLACEMENT_3D ( 'NONE', #71, #161, #203 ) ;
#28 = ORIENTED_EDGE ( 'NONE', *, *, #76, .T. ) ;
#29 = FACE_OUTER_BOUND ( 'NONE', #204, .T. ) ;
#30 = CARTESIAN_POINT ( 'NONE',  ( 1.337926628068483387E-15, 12.99999999999999822, 10.00000000000000000 ) ) ;
#31 = ORIENTED_EDGE ( 'NONE', *, *, #32, .F. ) ;
#32 = EDGE_CURVE ( 'NONE', #142, #244, #217, .T. ) ;
#33 = DIRECTION ( 'NONE',  ( 0.000000000000000000, 0.000000000000000000, -1.000000000000000000 ) ) ;
#34 = AXIS2_PLACEMENT_3D ( 'NONE', #17, #132, #173 ) ;
#35 = VERTEX_POINT ( 'NONE', #109 ) ;
#36 = APPLICATION_CONTEXT ( 'automotive_design' ) ;
#37 = EDGE_CURVE ( 'NONE', #142, #115, #252, .T. ) ;
#38 =( NAMED_UNIT ( * ) PLANE_ANGLE_UNIT ( ) SI_UNIT ( $, .RADIAN. ) );
#39 = AXIS2_PLACEMENT_3D ( 'NONE', #276, #70, #237 ) ;
#40 = CARTESIAN_POINT ( 'NONE',  ( 0.000000000000000000, -39.21061550759392844, 0.000000000000000000 ) ) ;
#41 = SURFACE_STYLE_USAGE ( .BOTH. , #233 ) ;
#42 = EDGE_CURVE ( 'NONE', #121, #35, #152, .T. ) ;
#43 = CARTESIAN_POINT ( 'NONE',  ( 0.000000000000000000, 0.000000000000000000, 0.000000000000000000 ) ) ;
#44 = AXIS2_PLACEMENT_3D ( 'NONE', #184, #164, #266 ) ;
#45 = EDGE_CURVE ( 'NONE', #182, #165, #205, .T. ) ;
#46 = AXIS2_PLACEMENT_3D ( 'NONE', #168, #19, #67 ) ;
#47 = CARTESIAN_POINT ( 'NONE',  ( 0.000000000000000000, 6.599999999999994316, -2.750000000000000000 ) ) ;
#48 = EDGE_LOOP ( 'NONE', ( #258, #5, #264, #263 ) ) ;
#49 = APPLICATION_CONTEXT ( 'automotive_design' ) ;
#50 = ADVANCED_FACE ( 'NONE', ( #111 ), #106, .F. ) ;
#51 = CARTESIAN_POINT ( 'NONE',  ( 4.500000000000000000, 13.00000000000000000, 0.000000000000000000 ) ) ;
#52 = ORIENTED_EDGE ( 'NONE', *, *, #150, .F. ) ;
#53 = MECHANICAL_DESIGN_GEOMETRIC_PRESENTATION_REPRESENTATION (  '', ( #177 ), #131 ) ;
#54 = ORIENTED_EDGE ( 'NONE', *, *, #3, .F. ) ;
#55 = DIRECTION ( 'NONE',  ( -0.000000000000000000, -1.000000000000000000, -0.000000000000000000 ) ) ;
#56 = ORIENTED_EDGE ( 'NONE', *, *, #42, .T. ) ;
#57 = FACE_OUTER_BOUND ( 'NONE', #126, .T. ) ;
#58 = ORIENTED_EDGE ( 'NONE', *, *, #83, .F. ) ;
#59 = CARTESIAN_POINT ( 'NONE',  ( 0.000000000000000000, 0.000000000000000000, 0.000000000000000000 ) ) ;
#60 = AXIS2_PLACEMENT_3D ( 'NONE', #135, #195, #89 ) ;
#61 = SHAPE_DEFINITION_REPRESENTATION ( #262, #226 ) ;
#62 = PRODUCT ( 'B690 \X2\042704350440043d0430044f\X0\ \X2\0440043504370438043d043e04320430044f\X0\ \X2\043d043e0436043a0430\X0\ \X2\0424\X0\25', 'B690 \X2\042704350440043d0430044f\X0\ \X2\0440043504370438043d043e04320430044f\X0\ \X2\043d043e0436043a0430\X0\ \X2\0424\X0\25', '', ( #270 ) ) ;
#63 = MANIFOLD_SOLID_BREP ( '\X2\041f043e043204350440043d04430442044c\X0\1', #10 ) ;
#64 =( LENGTH_UNIT ( ) NAMED_UNIT ( * ) SI_UNIT ( .MILLI., .METRE. ) );
#65 =( GEOMETRIC_REPRESENTATION_CONTEXT ( 3 ) GLOBAL_UNCERTAINTY_ASSIGNED_CONTEXT ( ( #151 ) ) GLOBAL_UNIT_ASSIGNED_CONTEXT ( ( #64, #251, #107 ) ) REPRESENTATION_CONTEXT ( 'NONE', 'WORKASPACE' ) );
#66 = ORIENTED_EDGE ( 'NONE', *, *, #45, .T. ) ;
#67 = DIRECTION ( 'NONE',  ( 0.000000000000000000, 0.000000000000000000, -1.000000000000000000 ) ) ;
#68 = LINE ( 'NONE', #279, #86 ) ;
#69 = AXIS2_PLACEMENT_3D ( 'NONE', #9, #100, #33 ) ;
#70 = DIRECTION ( 'NONE',  ( -0.000000000000000000, -1.000000000000000000, -0.000000000000000000 ) ) ;
#71 = CARTESIAN_POINT ( 'NONE',  ( 0.000000000000000000, -39.21061550759392844, 0.000000000000000000 ) ) ;
#72 = ADVANCED_FACE ( 'NONE', ( #253 ), #232, .F. ) ;
#73 = DIRECTION ( 'NONE',  ( -0.000000000000000000, -1.000000000000000000, -0.000000000000000000 ) ) ;
#74 = ORIENTED_EDGE ( 'NONE', *, *, #37, .T. ) ;
#75 = FACE_OUTER_BOUND ( 'NONE', #12, .T. ) ;
#76 = EDGE_CURVE ( 'NONE', #182, #187, #277, .T. ) ;
#77 = ORIENTED_EDGE ( 'NONE', *, *, #3, .T. ) ;
#78 = CARTESIAN_POINT ( 'NONE',  ( 1.451206456989613517E-15, 0.000000000000000000, 11.84999999999999964 ) ) ;
#79 = EDGE_CURVE ( 'NONE', #187, #182, #99, .T. ) ;
#80 = EDGE_LOOP ( 'NONE', ( #202, #98 ) ) ;
#81 = CIRCLE ( 'NONE', #208, 11.84999999999999964 ) ;
#82 = CARTESIAN_POINT ( 'NONE',  ( 0.000000000000000000, 12.99999999999999822, 0.000000000000000000 ) ) ;
#83 = EDGE_CURVE ( 'NONE', #165, #116, #211, .T. ) ;
#84 = DIRECTION ( 'NONE',  ( 0.000000000000000000, 0.000000000000000000, -1.000000000000000000 ) ) ;
#85 = CARTESIAN_POINT ( 'NONE',  ( 0.000000000000000000, -39.21061550759392844, 0.000000000000000000 ) ) ;
#86 = VECTOR ( 'NONE', #196, 1000.000000000000000 ) ;
#87 = CIRCLE ( 'NONE', #274, 11.84999999999999964 ) ;
#88 = DIRECTION ( 'NONE',  ( 0.000000000000000000, 0.000000000000000000, -1.000000000000000000 ) ) ;
#89 = DIRECTION ( 'NONE',  ( 0.000000000000000000, 0.000000000000000000, -1.000000000000000000 ) ) ;
#90 = EDGE_CURVE ( 'NONE', #187, #116, #209, .T. ) ;
#91 = CARTESIAN_POINT ( 'NONE',  ( 0.000000000000000000, 12.99999999999999822, -4.500000000000000000 ) ) ;
#92 = ADVANCED_FACE ( 'NONE', ( #234 ), #174, .F. ) ;
#93 = FACE_BOUND ( 'NONE', #214, .T. ) ;
#94 = ORIENTED_EDGE ( 'NONE', *, *, #238, .F. ) ;
#95 = DIRECTION ( 'NONE',  ( 0.000000000000000000, -1.000000000000000000, -0.000000000000000000 ) ) ;
#96 = ORIENTED_EDGE ( 'NONE', *, *, #114, .T. ) ;
#97 = DIRECTION ( 'NONE',  ( 0.000000000000000000, 0.000000000000000000, -1.000000000000000000 ) ) ;
#98 = ORIENTED_EDGE ( 'NONE', *, *, #158, .T. ) ;
#99 = CIRCLE ( 'NONE', #46, 2.750000000000000000 ) ;
#100 = DIRECTION ( 'NONE',  ( -0.000000000000000000, -1.000000000000000000, -0.000000000000000000 ) ) ;
#101 = ORIENTED_EDGE ( 'NONE', *, *, #235, .T. ) ;
#102 = CARTESIAN_POINT ( 'NONE',  ( 0.000000000000000000, 0.000000000000000000, 0.000000000000000000 ) ) ;
#103 = VERTEX_POINT ( 'NONE', #91 ) ;
#104 = DIRECTION ( 'NONE',  ( -0.000000000000000000, -1.000000000000000000, -0.000000000000000000 ) ) ;
#105 = EDGE_CURVE ( 'NONE', #259, #115, #81, .T. ) ;
#106 = CYLINDRICAL_SURFACE ( 'NONE', #155, 2.750000000000000000 ) ;
#107 =( NAMED_UNIT ( * ) SI_UNIT ( $, .STERADIAN. ) SOLID_ANGLE_UNIT ( ) );
#108 = CIRCLE ( 'NONE', #257, 4.500000000000000000 ) ;
#109 = CARTESIAN_POINT ( 'NONE',  ( 5.510910596163089556E-16, 6.599999999999994316, 4.500000000000000888 ) ) ;
#110 = CARTESIAN_POINT ( 'NONE',  ( 1.451206456989613517E-15, 0.000000000000000000, 11.84999999999999964 ) ) ;
#111 = FACE_OUTER_BOUND ( 'NONE', #48, .T. ) ;
#112 = VECTOR ( 'NONE', #18, 1000.000000000000227 ) ;
#113 = DIRECTION ( 'NONE',  ( 0.000000000000000000, 0.000000000000000000, -1.000000000000000000 ) ) ;
#114 = EDGE_CURVE ( 'NONE', #103, #179, #68, .T. ) ;
#115 = VERTEX_POINT ( 'NONE', #212 ) ;
#116 = VERTEX_POINT ( 'NONE', #166 ) ;
#117 = CARTESIAN_POINT ( 'NONE',  ( 0.000000000000000000, 12.99999999999999822, -10.00000000000000000 ) ) ;
#118 = EDGE_CURVE ( 'NONE', #179, #35, #4, .T. ) ;
#119 = ORIENTED_EDGE ( 'NONE', *, *, #105, .F. ) ;
#120 = DIRECTION ( 'NONE',  ( -0.000000000000000000, -1.000000000000000000, -0.000000000000000000 ) ) ;
#121 = VERTEX_POINT ( 'NONE', #7 ) ;
#122 = PRODUCT_DEFINITION_CONTEXT ( 'detailed design', #49, 'design' ) ;
#123 = FACE_BOUND ( 'NONE', #80, .T. ) ;
#124 = EDGE_LOOP ( 'NONE', ( #28, #149 ) ) ;
#125 = AXIS2_PLACEMENT_3D ( 'NONE', #178, #194, #223 ) ;
#126 = EDGE_LOOP ( 'NONE', ( #220, #8, #11, #198 ) ) ;
#127 = ADVANCED_FACE ( 'NONE', ( #139 ), #183, .F. ) ;
#128 = DIRECTION ( 'NONE',  ( 0.000000000000000000, 0.000000000000000000, 1.000000000000000000 ) ) ;
#129 = CARTESIAN_POINT ( 'NONE',  ( 0.000000000000000000, 0.000000000000000000, -11.84999999999999964 ) ) ;
#130 = CARTESIAN_POINT ( 'NONE',  ( 0.000000000000000000, 12.99999999999999822, 0.000000000000000000 ) ) ;
#131 =( GEOMETRIC_REPRESENTATION_CONTEXT ( 3 ) GLOBAL_UNCERTAINTY_ASSIGNED_CONTEXT ( ( #160 ) ) GLOBAL_UNIT_ASSIGNED_CONTEXT ( ( #154, #38, #16 ) ) REPRESENTATION_CONTEXT ( 'NONE', 'WORKASPACE' ) );
#132 = DIRECTION ( 'NONE',  ( -0.000000000000000000, -1.000000000000000000, -0.000000000000000000 ) ) ;
#133 = PRESENTATION_STYLE_ASSIGNMENT (( #41 ) ) ;
#134 = ADVANCED_FACE ( 'NONE', ( #123, #75 ), #26, .T. ) ;
#135 = CARTESIAN_POINT ( 'NONE',  ( 0.000000000000000000, -39.21061550759392844, 0.000000000000000000 ) ) ;
#136 = PRODUCT_DEFINITION_FORMATION_WITH_SPECIFIED_SOURCE ( 'ANY', '', #62, .NOT_KNOWN. ) ;
#137 = CARTESIAN_POINT ( 'NONE',  ( 3.367778697655221012E-16, -39.21061550759392844, 2.750000000000000000 ) ) ;
#138 = DIRECTION ( 'NONE',  ( -0.000000000000000000, -1.000000000000000000, -0.000000000000000000 ) ) ;
#139 = FACE_OUTER_BOUND ( 'NONE', #6, .T. ) ;
#140 = EDGE_LOOP ( 'NONE', ( #240, #242, #66, #269 ) ) ;
#141 = DIRECTION ( 'NONE',  ( 0.000000000000000000, 1.000000000000000000, 0.000000000000000000 ) ) ;
#142 = VERTEX_POINT ( 'NONE', #117 ) ;
#143 = AXIS2_PLACEMENT_3D ( 'NONE', #219, #95, #25 ) ;
#144 = AXIS2_PLACEMENT_3D ( 'NONE', #59, #13, #84 ) ;
#145 = DIRECTION ( 'NONE',  ( 0.000000000000000000, -0.000000000000000000, 1.000000000000000000 ) ) ;
#146 = ORIENTED_EDGE ( 'NONE', *, *, #268, .T. ) ;
#147 = CARTESIAN_POINT ( 'NONE',  ( 0.000000000000000000, 0.000000000000000000, -2.750000000000000000 ) ) ;
#148 = ORIENTED_EDGE ( 'NONE', *, *, #42, .F. ) ;
#149 = ORIENTED_EDGE ( 'NONE', *, *, #79, .T. ) ;
#150 = EDGE_CURVE ( 'NONE', #244, #259, #246, .T. ) ;
#151 = UNCERTAINTY_MEASURE_WITH_UNIT (LENGTH_MEASURE( 1.000000000000000082E-05 ), #64, 'distance_accuracy_value', 'NONE');
#152 = LINE ( 'NONE', #189, #20 ) ;
#153 = DIRECTION ( 'NONE',  ( 0.000000000000000000, 0.000000000000000000, -1.000000000000000000 ) ) ;
#154 =( LENGTH_UNIT ( ) NAMED_UNIT ( * ) SI_UNIT ( .MILLI., .METRE. ) );
#155 = AXIS2_PLACEMENT_3D ( 'NONE', #85, #156, #170 ) ;
#156 = DIRECTION ( 'NONE',  ( -0.000000000000000000, -1.000000000000000000, -0.000000000000000000 ) ) ;
#157 = DIRECTION ( 'NONE',  ( -0.000000000000000000, -1.000000000000000000, -0.000000000000000000 ) ) ;
#158 = EDGE_CURVE ( 'NONE', #121, #103, #108, .T. ) ;
#159 = CONICAL_SURFACE ( 'NONE', #44, 11.84999999999999964, 0.1413585516944502740 ) ;
#160 = UNCERTAINTY_MEASURE_WITH_UNIT (LENGTH_MEASURE( 1.000000000000000082E-05 ), #154, 'distance_accuracy_value', 'NONE');
#161 = DIRECTION ( 'NONE',  ( -0.000000000000000000, -1.000000000000000000, -0.000000000000000000 ) ) ;
#162 = FACE_OUTER_BOUND ( 'NONE', #224, .T. ) ;
#163 = EDGE_LOOP ( 'NONE', ( #52, #101, #74, #119 ) ) ;
#164 = DIRECTION ( 'NONE',  ( -0.000000000000000000, -1.000000000000000000, -0.000000000000000000 ) ) ;
#165 = VERTEX_POINT ( 'NONE', #147 ) ;
#166 = CARTESIAN_POINT ( 'NONE',  ( 3.367778697655221012E-16, 0.000000000000000000, 2.750000000000000000 ) ) ;
#167 = ORIENTED_EDGE ( 'NONE', *, *, #118, .F. ) ;
#168 = CARTESIAN_POINT ( 'NONE',  ( 0.000000000000000000, 6.599999999999994316, 0.000000000000000000 ) ) ;
#169 = CIRCLE ( 'NONE', #69, 10.00000000000000000 ) ;
#170 = DIRECTION ( 'NONE',  ( 0.000000000000000000, 0.000000000000000000, -1.000000000000000000 ) ) ;
#171 = APPLICATION_PROTOCOL_DEFINITION ( 'draft international standard', 'automotive_design', 1998, #49 ) ;
#172 = CIRCLE ( 'NONE', #185, 2.750000000000000000 ) ;
#173 = DIRECTION ( 'NONE',  ( 0.000000000000000000, 0.000000000000000000, -1.000000000000000000 ) ) ;
#174 = CYLINDRICAL_SURFACE ( 'NONE', #60, 4.500000000000000888 ) ;
#175 = DIRECTION ( 'NONE',  ( -0.000000000000000000, -1.000000000000000000, -0.000000000000000000 ) ) ;
#176 = CARTESIAN_POINT ( 'NONE',  ( 0.000000000000000000, 0.000000000000000000, 0.000000000000000000 ) ) ;
#177 = STYLED_ITEM ( 'NONE', ( #133 ), #63 ) ;
#178 = CARTESIAN_POINT ( 'NONE',  ( 0.000000000000000000, 6.599999999999994316, 0.000000000000000000 ) ) ;
#179 = VERTEX_POINT ( 'NONE', #239 ) ;
#180 = DIRECTION ( 'NONE',  ( 0.000000000000000000, 0.000000000000000000, -1.000000000000000000 ) ) ;
#181 = VECTOR ( 'NONE', #22, 1000.000000000000000 ) ;
#182 = VERTEX_POINT ( 'NONE', #47 ) ;
#183 = CYLINDRICAL_SURFACE ( 'NONE', #27, 4.500000000000000888 ) ;
#184 = CARTESIAN_POINT ( 'NONE',  ( 0.000000000000000000, 0.000000000000000000, 0.000000000000000000 ) ) ;
#185 = AXIS2_PLACEMENT_3D ( 'NONE', #215, #120, #261 ) ;
#186 = CARTESIAN_POINT ( 'NONE',  ( 2.750000000000000000, 6.599999999999996980, 0.000000000000000000 ) ) ;
#187 = VERTEX_POINT ( 'NONE', #201 ) ;
#188 = DIRECTION ( 'NONE',  ( -0.000000000000000000, -1.000000000000000000, -0.000000000000000000 ) ) ;
#189 = CARTESIAN_POINT ( 'NONE',  ( 5.510910596163089556E-16, -39.21061550759392844, 4.500000000000000888 ) ) ;
#190 = VECTOR ( 'NONE', #243, 1000.000000000000227 ) ;
#191 = APPLICATION_PROTOCOL_DEFINITION ( 'draft international standard', 'automotive_design', 1998, #36 ) ;
#192 = ADVANCED_FACE ( 'NONE', ( #162, #93 ), #213, .T. ) ;
#193 = VECTOR ( 'NONE', #175, 1000.000000000000000 ) ;
#194 = DIRECTION ( 'NONE',  ( -0.000000000000000000, -1.000000000000000000, -0.000000000000000000 ) ) ;
#195 = DIRECTION ( 'NONE',  ( -0.000000000000000000, -1.000000000000000000, -0.000000000000000000 ) ) ;
#196 = DIRECTION ( 'NONE',  ( -0.000000000000000000, -1.000000000000000000, -0.000000000000000000 ) ) ;
#197 = CARTESIAN_POINT ( 'NONE',  ( 0.000000000000000000, 6.599999999999994316, 0.000000000000000000 ) ) ;
#198 = ORIENTED_EDGE ( 'NONE', *, *, #37, .F. ) ;
#199 = FACE_BOUND ( 'NONE', #124, .T. ) ;
#200 = CARTESIAN_POINT ( 'NONE',  ( 0.000000000000000000, 12.99999999999999822, 0.000000000000000000 ) ) ;
#201 = CARTESIAN_POINT ( 'NONE',  ( 3.367778697655221012E-16, 6.599999999999994316, 2.750000000000000000 ) ) ;
#202 = ORIENTED_EDGE ( 'NONE', *, *, #260, .T. ) ;
#203 = DIRECTION ( 'NONE',  ( 0.000000000000000000, 0.000000000000000000, -1.000000000000000000 ) ) ;
#204 = EDGE_LOOP ( 'NONE', ( #167, #54 ) ) ;
#205 = LINE ( 'NONE', #14, #193 ) ;
#206 = FILL_AREA_STYLE ('',( #255 ) ) ;
#207 = DIRECTION ( 'NONE',  ( 0.000000000000000000, 0.000000000000000000, -1.000000000000000000 ) ) ;
#208 = AXIS2_PLACEMENT_3D ( 'NONE', #176, #138, #113 ) ;
#209 = LINE ( 'NONE', #137, #181 ) ;
#210 = DIRECTION ( 'NONE',  ( 0.000000000000000000, 0.000000000000000000, -1.000000000000000000 ) ) ;
#211 = CIRCLE ( 'NONE', #39, 2.750000000000000000 ) ;
#212 = CARTESIAN_POINT ( 'NONE',  ( 0.000000000000000000, 0.000000000000000000, -11.84999999999999964 ) ) ;
#213 = PLANE ( 'NONE',  #143 ) ;
#214 = EDGE_LOOP ( 'NONE', ( #58, #94 ) ) ;
#215 = CARTESIAN_POINT ( 'NONE',  ( 0.000000000000000000, 0.000000000000000000, 0.000000000000000000 ) ) ;
#216 = ORIENTED_EDGE ( 'NONE', *, *, #114, .F. ) ;
#217 = CIRCLE ( 'NONE', #229, 10.00000000000000000 ) ;
#218 = CIRCLE ( 'NONE', #265, 4.500000000000000000 ) ;
#219 = CARTESIAN_POINT ( 'NONE',  ( 2.750000000000000000, 0.000000000000000000, 0.000000000000000000 ) ) ;
#220 = ORIENTED_EDGE ( 'NONE', *, *, #32, .T. ) ;
#221 = DIRECTION ( 'NONE',  ( 0.000000000000000000, -0.000000000000000000, 1.000000000000000000 ) ) ;
#222 = ORIENTED_EDGE ( 'NONE', *, *, #235, .F. ) ;
#223 = DIRECTION ( 'NONE',  ( 0.000000000000000000, 0.000000000000000000, -1.000000000000000000 ) ) ;
#224 = EDGE_LOOP ( 'NONE', ( #146, #23 ) ) ;
#225 = PRESENTATION_LAYER_ASSIGNMENT (  '', '', ( #177 ) ) ;
#226 = ADVANCED_BREP_SHAPE_REPRESENTATION ( 'B690 \X2\042704350440043d0430044f\X0\ \X2\0440043504370438043d043e04320430044f\X0\ \X2\043d043e0436043a0430\X0\ \X2\0424\X0\25', ( #63, #245 ), #65 ) ;
#227 = FACE_OUTER_BOUND ( 'NONE', #163, .T. ) ;
#228 = DIRECTION ( 'NONE',  ( -0.000000000000000000, -1.000000000000000000, -0.000000000000000000 ) ) ;
#229 = AXIS2_PLACEMENT_3D ( 'NONE', #82, #275, #88 ) ;
#230 = CONICAL_SURFACE ( 'NONE', #144, 11.84999999999999964, 0.1413585516944502740 ) ;
#231 = ADVANCED_FACE ( 'NONE', ( #199, #29 ), #2, .T. ) ;
#232 = CYLINDRICAL_SURFACE ( 'NONE', #15, 2.750000000000000000 ) ;
#233 = SURFACE_SIDE_STYLE ('',( #272 ) ) ;
#234 = FACE_OUTER_BOUND ( 'NONE', #247, .T. ) ;
#235 = EDGE_CURVE ( 'NONE', #244, #142, #169, .T. ) ;
#236 = AXIS2_PLACEMENT_3D ( 'NONE', #197, #73, #180 ) ;
#237 = DIRECTION ( 'NONE',  ( 0.000000000000000000, 0.000000000000000000, -1.000000000000000000 ) ) ;
#238 = EDGE_CURVE ( 'NONE', #116, #165, #172, .T. ) ;
#239 = CARTESIAN_POINT ( 'NONE',  ( 0.000000000000000000, 6.599999999999994316, -4.500000000000000888 ) ) ;
#240 = ORIENTED_EDGE ( 'NONE', *, *, #90, .F. ) ;
#241 = DIRECTION ( 'NONE',  ( 0.000000000000000000, 1.000000000000000000, 0.000000000000000000 ) ) ;
#242 = ORIENTED_EDGE ( 'NONE', *, *, #76, .F. ) ;
#243 = DIRECTION ( 'NONE',  ( 1.725383383688382729E-17, -0.9900255059338768371, 0.1408882450752055315 ) ) ;
#244 = VERTEX_POINT ( 'NONE', #30 ) ;
#245 = AXIS2_PLACEMENT_3D ( 'NONE', #102, #128, #249 ) ;
#246 = LINE ( 'NONE', #78, #190 ) ;
#247 = EDGE_LOOP ( 'NONE', ( #267, #56, #77, #216 ) ) ;
#248 = ADVANCED_FACE ( 'NONE', ( #57 ), #159, .T. ) ;
#249 = DIRECTION ( 'NONE',  ( 1.000000000000000000, 0.000000000000000000, 0.000000000000000000 ) ) ;
#250 = ORIENTED_EDGE ( 'NONE', *, *, #260, .F. ) ;
#251 =( NAMED_UNIT ( * ) PLANE_ANGLE_UNIT ( ) SI_UNIT ( $, .RADIAN. ) );
#252 = LINE ( 'NONE', #129, #112 ) ;
#253 = FACE_OUTER_BOUND ( 'NONE', #140, .T. ) ;
#254 = COLOUR_RGB ( '',0.7921568627450980005, 0.8196078431372548767, 0.9333333333333333481 ) ;
#255 = FILL_AREA_STYLE_COLOUR ( '', #254 ) ;
#256 = PRODUCT_RELATED_PRODUCT_CATEGORY ( 'part', '', ( #62 ) ) ;
#257 = AXIS2_PLACEMENT_3D ( 'NONE', #200, #55, #97 ) ;
#258 = ORIENTED_EDGE ( 'NONE', *, *, #79, .F. ) ;
#259 = VERTEX_POINT ( 'NONE', #110 ) ;
#260 = EDGE_CURVE ( 'NONE', #103, #121, #218, .T. ) ;
#261 = DIRECTION ( 'NONE',  ( 0.000000000000000000, 0.000000000000000000, -1.000000000000000000 ) ) ;
#262 = PRODUCT_DEFINITION_SHAPE ( 'NONE', 'NONE',  #24 ) ;
#263 = ORIENTED_EDGE ( 'NONE', *, *, #45, .F. ) ;
#264 = ORIENTED_EDGE ( 'NONE', *, *, #238, .T. ) ;
#265 = AXIS2_PLACEMENT_3D ( 'NONE', #130, #104, #153 ) ;
#266 = DIRECTION ( 'NONE',  ( 0.000000000000000000, 0.000000000000000000, -1.000000000000000000 ) ) ;
#267 = ORIENTED_EDGE ( 'NONE', *, *, #158, .F. ) ;
#268 = EDGE_CURVE ( 'NONE', #115, #259, #87, .T. ) ;
#269 = ORIENTED_EDGE ( 'NONE', *, *, #83, .T. ) ;
#270 = PRODUCT_CONTEXT ( 'NONE', #36, 'mechanical' ) ;
#271 = AXIS2_PLACEMENT_3D ( 'NONE', #51, #241, #145 ) ;
#272 = SURFACE_STYLE_FILL_AREA ( #206 ) ;
#273 = CIRCLE ( 'NONE', #34, 4.500000000000000888 ) ;
#274 = AXIS2_PLACEMENT_3D ( 'NONE', #43, #188, #207 ) ;
#275 = DIRECTION ( 'NONE',  ( -0.000000000000000000, -1.000000000000000000, -0.000000000000000000 ) ) ;
#276 = CARTESIAN_POINT ( 'NONE',  ( 0.000000000000000000, 0.000000000000000000, 0.000000000000000000 ) ) ;
#277 = CIRCLE ( 'NONE', #125, 2.750000000000000000 ) ;
#278 = ADVANCED_FACE ( 'NONE', ( #227 ), #230, .T. ) ;
#279 = CARTESIAN_POINT ( 'NONE',  ( 0.000000000000000000, -39.21061550759392844, -4.500000000000000888 ) ) ;
ENDSEC;
END-ISO-10303-21;
