ISO-10303-21;
HEADER;
FILE_DESCRIPTION (( 'STEP AP214' ),
    '1' );
FILE_NAME ('Ñáîðêà9.STEP',
    '2025-03-28T11:01:26',
    ( '' ),
    ( '' ),
    'SwSTEP 2.0',
    'SolidWorks 2025',
    '' );
FILE_SCHEMA (( 'AUTOMOTIVE_DESIGN' ));
ENDSEC;

DATA;
#1 =( GEOMETRIC_REPRESENTATION_CONTEXT ( 3 ) GLOBAL_UNCERTAINTY_ASSIGNED_CONTEXT ( ( #243 ) ) GLOBAL_UNIT_ASSIGNED_CONTEXT ( ( #126, #61, #20 ) ) REPRESENTATION_CONTEXT ( 'NONE', 'WORKASPACE' ) );
#2 = ORIENTED_EDGE ( 'NONE', *, *, #54, .T. ) ;
#3 = MECHANICAL_DESIGN_GEOMETRIC_PRESENTATION_REPRESENTATION (  '', ( #196 ), #70 ) ;
#4 = CIRCLE ( 'NONE', #34, 5.000000000000000000 ) ;
#5 =( NAMED_UNIT ( * ) PLANE_ANGLE_UNIT ( ) SI_UNIT ( $, .RADIAN. ) );
#6 = EDGE_CURVE ( 'NONE', #86, #206, #247, .T. ) ;
#7 = APPLICATION_CONTEXT ( 'automotive_design' ) ;
#8 =( NAMED_UNIT ( * ) SI_UNIT ( $, .STERADIAN. ) SOLID_ANGLE_UNIT ( ) );
#9 = CIRCLE ( 'NONE', #23, 5.000000000000000000 ) ;
#10 = DIRECTION ( 'NONE',  ( 0.000000000000000000, 0.000000000000000000, 1.000000000000000000 ) ) ;
#11 = ORIENTED_EDGE ( 'NONE', *, *, #149, .F. ) ;
#12 = FILL_AREA_STYLE_COLOUR ( '', #40 ) ;
#13 = CARTESIAN_POINT ( 'NONE',  ( 4.000000000000000000, 4.898587196589412829E-16, 1000.000000000000000 ) ) ;
#14 = CARTESIAN_POINT ( 'NONE',  ( 5.000000000000000000, 6.123233995736766282E-16, 0.000000000000000000 ) ) ;
#15 = DIRECTION ( 'NONE',  ( -1.000000000000000000, 0.000000000000000000, 0.000000000000000000 ) ) ;
#16 = LINE ( 'NONE', #249, #88 ) ;
#17 =( GEOMETRIC_REPRESENTATION_CONTEXT ( 3 ) GLOBAL_UNCERTAINTY_ASSIGNED_CONTEXT ( ( #152 ) ) GLOBAL_UNIT_ASSIGNED_CONTEXT ( ( #41, #144, #165 ) ) REPRESENTATION_CONTEXT ( 'NONE', 'WORKASPACE' ) );
#18 = EDGE_CURVE ( 'NONE', #101, #86, #200, .T. ) ;
#19 = SURFACE_STYLE_FILL_AREA ( #99 ) ;
#20 =( NAMED_UNIT ( * ) SI_UNIT ( $, .STERADIAN. ) SOLID_ANGLE_UNIT ( ) );
#21 = CARTESIAN_POINT ( 'NONE',  ( 5.000000000000000000, 6.123233995736766282E-16, 1000.000000000000000 ) ) ;
#22 = ORIENTED_EDGE ( 'NONE', *, *, #6, .F. ) ;
#23 = AXIS2_PLACEMENT_3D ( 'NONE', #216, #121, #95 ) ;
#24 = DIRECTION ( 'NONE',  ( -1.000000000000000000, 0.000000000000000000, 0.000000000000000000 ) ) ;
#25 = EDGE_CURVE ( 'NONE', #86, #101, #57, .T. ) ;
#26 =( NAMED_UNIT ( * ) SI_UNIT ( $, .STERADIAN. ) SOLID_ANGLE_UNIT ( ) );
#27 = EDGE_LOOP ( 'NONE', ( #110, #188, #169, #227 ) ) ;
#28 = APPLICATION_PROTOCOL_DEFINITION ( 'draft international standard', 'automotive_design', 1998, #119 ) ;
#29 = APPLICATION_PROTOCOL_DEFINITION ( 'draft international standard', 'automotive_design', 1998, #189 ) ;
#30 = DIRECTION ( 'NONE',  ( 1.000000000000000000, 0.000000000000000000, 0.000000000000000000 ) ) ;
#31 = FACE_OUTER_BOUND ( 'NONE', #132, .T. ) ;
#32 = EDGE_CURVE ( 'NONE', #101, #135, #193, .T. ) ;
#33 = CYLINDRICAL_SURFACE ( 'NONE', #138, 5.000000000000000000 ) ;
#34 = AXIS2_PLACEMENT_3D ( 'NONE', #176, #76, #30 ) ;
#35 = DIRECTION ( 'NONE',  ( -0.000000000000000000, -0.000000000000000000, -1.000000000000000000 ) ) ;
#36 = CARTESIAN_POINT ( 'NONE',  ( 0.000000000000000000, 0.000000000000000000, 0.000000000000000000 ) ) ;
#37 = ADVANCED_FACE ( 'NONE', ( #141 ), #33, .T. ) ;
#38 =( GEOMETRIC_REPRESENTATION_CONTEXT ( 3 ) GLOBAL_UNCERTAINTY_ASSIGNED_CONTEXT ( ( #89 ) ) GLOBAL_UNIT_ASSIGNED_CONTEXT ( ( #241, #5, #26 ) ) REPRESENTATION_CONTEXT ( 'NONE', 'WORKASPACE' ) );
#39 = DIRECTION ( 'NONE',  ( -0.000000000000000000, -0.000000000000000000, -1.000000000000000000 ) ) ;
#40 = COLOUR_RGB ( '',0.8666666666666666963, 0.9098039215686274384, 1.000000000000000000 ) ;
#41 =( LENGTH_UNIT ( ) NAMED_UNIT ( * ) SI_UNIT ( .MILLI., .METRE. ) );
#42 = DIRECTION ( 'NONE',  ( 1.000000000000000000, 0.000000000000000000, 0.000000000000000000 ) ) ;
#43 = CIRCLE ( 'NONE', #198, 5.000000000000000000 ) ;
#44 = APPLICATION_PROTOCOL_DEFINITION ( 'draft international standard', 'automotive_design', 1998, #7 ) ;
#45 = AXIS2_PLACEMENT_3D ( 'NONE', #218, #103, #221 ) ;
#46 = ORIENTED_EDGE ( 'NONE', *, *, #25, .T. ) ;
#47 = CARTESIAN_POINT ( 'NONE',  ( 0.000000000000000000, 0.000000000000000000, 0.000000000000000000 ) ) ;
#48 = ORIENTED_EDGE ( 'NONE', *, *, #18, .T. ) ;
#49 = DIRECTION ( 'NONE',  ( 0.000000000000000000, 0.000000000000000000, 1.000000000000000000 ) ) ;
#50 = ORIENTED_EDGE ( 'NONE', *, *, #25, .F. ) ;
#51 = PRODUCT_DEFINITION_FORMATION_WITH_SPECIFIED_SOURCE ( 'ANY', '', #240, .NOT_KNOWN. ) ;
#52 = AXIS2_PLACEMENT_3D ( 'NONE', #36, #53, #93 ) ;
#53 = DIRECTION ( 'NONE',  ( 0.000000000000000000, 0.000000000000000000, 1.000000000000000000 ) ) ;
#54 = EDGE_CURVE ( 'NONE', #206, #135, #78, .T. ) ;
#55 = FACE_OUTER_BOUND ( 'NONE', #68, .T. ) ;
#56 = DIRECTION ( 'NONE',  ( 0.000000000000000000, 0.000000000000000000, 1.000000000000000000 ) ) ;
#57 = CIRCLE ( 'NONE', #102, 4.000000000000000000 ) ;
#58 = DIRECTION ( 'NONE',  ( -0.000000000000000000, -0.000000000000000000, -1.000000000000000000 ) ) ;
#59 = AXIS2_PLACEMENT_3D ( 'NONE', #47, #10, #84 ) ;
#60 = DIRECTION ( 'NONE',  ( 0.000000000000000000, 0.000000000000000000, 1.000000000000000000 ) ) ;
#61 =( NAMED_UNIT ( * ) PLANE_ANGLE_UNIT ( ) SI_UNIT ( $, .RADIAN. ) );
#62 = ORIENTED_EDGE ( 'NONE', *, *, #54, .F. ) ;
#63 = CARTESIAN_POINT ( 'NONE',  ( -5.000000000000000000, 0.000000000000000000, 0.000000000000000000 ) ) ;
#64 = COLOUR_RGB ( '',0.8666666666666666963, 0.9098039215686274384, 1.000000000000000000 ) ;
#65 = ORIENTED_EDGE ( 'NONE', *, *, #133, .F. ) ;
#66 = APPLICATION_PROTOCOL_DEFINITION ( 'draft international standard', 'automotive_design', 1998, #161 ) ;
#67 = PRODUCT ( 'TR10S1 \X2\041f0440043e04440438043b044c\X0\ \X2\0430043b044e043c0438043d043804350432044b0439\X0\, \X2\04420440044304310430\X0\ \X2\00d8\X0\10\X2\0445\X0\1 (\X2\041104350437\X0\ \X2\043f043e043a0440044b04420438044f\X0\)_00', 'TR10S1 \X2\041f0440043e04440438043b044c\X0\ \X2\0430043b044e043c0438043d043804350432044b0439\X0\, \X2\04420440044304310430\X0\ \X2\00d8\X0\10\X2\0445\X0\1 (\X2\041104350437\X0\ \X2\043f043e043a0440044b04420438044f\X0\)_00', '', ( #185 ) ) ;
#68 = EDGE_LOOP ( 'NONE', ( #46, #175, #62, #22 ) ) ;
#69 = VERTEX_POINT ( 'NONE', #14 ) ;
#70 =( GEOMETRIC_REPRESENTATION_CONTEXT ( 3 ) GLOBAL_UNCERTAINTY_ASSIGNED_CONTEXT ( ( #207 ) ) GLOBAL_UNIT_ASSIGNED_CONTEXT ( ( #235, #137, #8 ) ) REPRESENTATION_CONTEXT ( 'NONE', 'WORKASPACE' ) );
#71 = CIRCLE ( 'NONE', #219, 4.000000000000000000 ) ;
#72 = FACE_OUTER_BOUND ( 'NONE', #136, .T. ) ;
#73 = CARTESIAN_POINT ( 'NONE',  ( 0.000000000000000000, 0.000000000000000000, 1000.000000000000000 ) ) ;
#74 = DIRECTION ( 'NONE',  ( 1.000000000000000000, 0.000000000000000000, -0.000000000000000000 ) ) ;
#75 = PRESENTATION_LAYER_ASSIGNMENT (  '', '', ( #209 ) ) ;
#76 = DIRECTION ( 'NONE',  ( 0.000000000000000000, 0.000000000000000000, 1.000000000000000000 ) ) ;
#77 = ADVANCED_FACE ( 'NONE', ( #233, #194 ), #155, .F. ) ;
#78 = CIRCLE ( 'NONE', #214, 4.000000000000000000 ) ;
#79 = CARTESIAN_POINT ( 'NONE',  ( 0.000000000000000000, 0.000000000000000000, 1000.000000000000000 ) ) ;
#80 = VERTEX_POINT ( 'NONE', #92 ) ;
#81 = PRESENTATION_LAYER_ASSIGNMENT (  '', '', ( #196 ) ) ;
#82 = EDGE_CURVE ( 'NONE', #106, #186, #16, .T. ) ;
#83 = CIRCLE ( 'NONE', #45, 5.000000000000000000 ) ;
#84 = DIRECTION ( 'NONE',  ( 1.000000000000000000, 0.000000000000000000, 0.000000000000000000 ) ) ;
#85 = SHAPE_DEFINITION_REPRESENTATION ( #104, #115 ) ;
#86 = VERTEX_POINT ( 'NONE', #139 ) ;
#87 = ORIENTED_EDGE ( 'NONE', *, *, #199, .F. ) ;
#88 = VECTOR ( 'NONE', #212, 1000.000000000000000 ) ;
#89 = UNCERTAINTY_MEASURE_WITH_UNIT (LENGTH_MEASURE( 1.000000000000000082E-05 ), #241, 'distance_accuracy_value', 'NONE');
#90 = EDGE_LOOP ( 'NONE', ( #146, #87, #153, #226 ) ) ;
#91 = FILL_AREA_STYLE ('',( #12 ) ) ;
#92 = CARTESIAN_POINT ( 'NONE',  ( 5.000000000000000000, 6.123233995736766282E-16, 1000.000000000000000 ) ) ;
#93 = DIRECTION ( 'NONE',  ( 1.000000000000000000, 0.000000000000000000, -0.000000000000000000 ) ) ;
#94 = CARTESIAN_POINT ( 'NONE',  ( 0.000000000000000000, 0.000000000000000000, 1000.000000000000000 ) ) ;
#95 = DIRECTION ( 'NONE',  ( 1.000000000000000000, 0.000000000000000000, 0.000000000000000000 ) ) ;
#96 = CLOSED_SHELL ( 'NONE', ( #124, #37, #113, #77, #172, #98 ) ) ;
#97 = SURFACE_STYLE_USAGE ( .BOTH. , #245 ) ;
#98 = ADVANCED_FACE ( 'NONE', ( #31 ), #116, .F. ) ;
#99 = FILL_AREA_STYLE ('',( #217 ) ) ;
#100 = DIRECTION ( 'NONE',  ( -0.000000000000000000, -0.000000000000000000, -1.000000000000000000 ) ) ;
#101 = VERTEX_POINT ( 'NONE', #13 ) ;
#102 = AXIS2_PLACEMENT_3D ( 'NONE', #210, #56, #160 ) ;
#103 = DIRECTION ( 'NONE',  ( 0.000000000000000000, 0.000000000000000000, 1.000000000000000000 ) ) ;
#104 = PRODUCT_DEFINITION_SHAPE ( 'NONE', 'NONE',  #211 ) ;
#105 = DIRECTION ( 'NONE',  ( 0.000000000000000000, 0.000000000000000000, 1.000000000000000000 ) ) ;
#106 = VERTEX_POINT ( 'NONE', #173 ) ;
#107 = PRODUCT_RELATED_PRODUCT_CATEGORY ( 'part', '', ( #240 ) ) ;
#108 = ORIENTED_EDGE ( 'NONE', *, *, #191, .T. ) ;
#109 = CARTESIAN_POINT ( 'NONE',  ( 996.8561698549032144, 1006.264176258597786, 496.8806719085905570 ) ) ;
#110 = ORIENTED_EDGE ( 'NONE', *, *, #191, .F. ) ;
#111 = CONTEXT_DEPENDENT_SHAPE_REPRESENTATION ( #166, #180 ) ;
#112 = MECHANICAL_DESIGN_GEOMETRIC_PRESENTATION_REPRESENTATION (  '', ( #209 ), #17 ) ;
#113 = ADVANCED_FACE ( 'NONE', ( #72, #215 ), #246, .T. ) ;
#114 = DIRECTION ( 'NONE',  ( -0.000000000000000000, -0.000000000000000000, -1.000000000000000000 ) ) ;
#115 = SHAPE_REPRESENTATION ( 'TR10S1 \X2\041f0440043e04440438043b044c\X0\ \X2\0430043b044e043c0438043d043804350432044b0439\X0\, \X2\04420440044304310430\X0\ \X2\00d8\X0\10\X2\0445\X0\1 (\X2\041104350437\X0\ \X2\043f043e043a0440044b04420438044f\X0\)_00', ( #177 ), #1 ) ;
#116 = CYLINDRICAL_SURFACE ( 'NONE', #148, 4.000000000000000000 ) ;
#117 = DIRECTION ( 'NONE',  ( -0.000000000000000000, -0.000000000000000000, -1.000000000000000000 ) ) ;
#118 = VECTOR ( 'NONE', #58, 1000.000000000000000 ) ;
#119 = APPLICATION_CONTEXT ( 'automotive_design' ) ;
#120 = CARTESIAN_POINT ( 'NONE',  ( 0.000000000000000000, 0.000000000000000000, 1000.000000000000000 ) ) ;
#121 = DIRECTION ( 'NONE',  ( 0.000000000000000000, 0.000000000000000000, 1.000000000000000000 ) ) ;
#122 = CARTESIAN_POINT ( 'NONE',  ( -4.000000000000000000, 0.000000000000000000, 0.000000000000000000 ) ) ;
#123 = VECTOR ( 'NONE', #174, 1000.000000000000000 ) ;
#124 = ADVANCED_FACE ( 'NONE', ( #55 ), #213, .F. ) ;
#125 = LINE ( 'NONE', #21, #228 ) ;
#126 =( LENGTH_UNIT ( ) NAMED_UNIT ( * ) SI_UNIT ( .MILLI., .METRE. ) );
#127 = SHAPE_REPRESENTATION ( '\X2\04210431043e0440043a0430\X0\9', ( #234, #182 ), #38 ) ;
#128 = AXIS2_PLACEMENT_3D ( 'NONE', #120, #35, #159 ) ;
#129 = PRESENTATION_STYLE_ASSIGNMENT (( #97 ) ) ;
#130 = SHAPE_REPRESENTATION_RELATIONSHIP ( 'NONE' , 'NONE' ,  #115, #145 ) ;
#131 = PRODUCT_DEFINITION_FORMATION_WITH_SPECIFIED_SOURCE ( 'ANY', '', #67, .NOT_KNOWN. ) ;
#132 = EDGE_LOOP ( 'NONE', ( #204, #48, #184, #244 ) ) ;
#133 = EDGE_CURVE ( 'NONE', #69, #186, #9, .T. ) ;
#134 = PRODUCT_CONTEXT ( 'NONE', #7, 'mechanical' ) ;
#135 = VERTEX_POINT ( 'NONE', #195 ) ;
#136 = EDGE_LOOP ( 'NONE', ( #150, #108 ) ) ;
#137 =( NAMED_UNIT ( * ) PLANE_ANGLE_UNIT ( ) SI_UNIT ( $, .RADIAN. ) );
#138 = AXIS2_PLACEMENT_3D ( 'NONE', #142, #114, #15 ) ;
#139 = CARTESIAN_POINT ( 'NONE',  ( -4.000000000000000000, 0.000000000000000000, 1000.000000000000000 ) ) ;
#140 = CARTESIAN_POINT ( 'NONE',  ( -4.000000000000000000, 0.000000000000000000, 1000.000000000000000 ) ) ;
#141 = FACE_OUTER_BOUND ( 'NONE', #27, .T. ) ;
#142 = CARTESIAN_POINT ( 'NONE',  ( 0.000000000000000000, 0.000000000000000000, 1000.000000000000000 ) ) ;
#143 = DIRECTION ( 'NONE',  ( 0.000000000000000000, 0.000000000000000000, 1.000000000000000000 ) ) ;
#144 =( NAMED_UNIT ( * ) PLANE_ANGLE_UNIT ( ) SI_UNIT ( $, .RADIAN. ) );
#145 = ADVANCED_BREP_SHAPE_REPRESENTATION ( '', ( #151, #177 ), #1 ) ;
#146 = ORIENTED_EDGE ( 'NONE', *, *, #164, .F. ) ;
#147 = DIRECTION ( 'NONE',  ( 1.000000000000000000, 0.000000000000000000, 0.000000000000000000 ) ) ;
#148 = AXIS2_PLACEMENT_3D ( 'NONE', #94, #117, #230 ) ;
#149 = EDGE_CURVE ( 'NONE', #186, #69, #4, .T. ) ;
#150 = ORIENTED_EDGE ( 'NONE', *, *, #199, .T. ) ;
#151 = MANIFOLD_SOLID_BREP ( '\X2\0411043e0431044b0448043a0430\X0\-\X2\0412044b0442044f043d04430442044c\X0\1', #96 ) ;
#152 = UNCERTAINTY_MEASURE_WITH_UNIT (LENGTH_MEASURE( 1.000000000000000082E-05 ), #41, 'distance_accuracy_value', 'NONE');
#153 = ORIENTED_EDGE ( 'NONE', *, *, #82, .T. ) ;
#154 = CARTESIAN_POINT ( 'NONE',  ( 4.000000000000000000, 4.898587196589412829E-16, 1000.000000000000000 ) ) ;
#155 = PLANE ( 'NONE',  #52 ) ;
#156 = EDGE_CURVE ( 'NONE', #135, #206, #71, .T. ) ;
#157 = PRODUCT_RELATED_PRODUCT_CATEGORY ( 'part', '', ( #67 ) ) ;
#158 = DIRECTION ( 'NONE',  ( 0.000000000000000000, 0.000000000000000000, 1.000000000000000000 ) ) ;
#159 = DIRECTION ( 'NONE',  ( -1.000000000000000000, 0.000000000000000000, 0.000000000000000000 ) ) ;
#160 = DIRECTION ( 'NONE',  ( 1.000000000000000000, 0.000000000000000000, 0.000000000000000000 ) ) ;
#161 = APPLICATION_CONTEXT ( 'automotive_design' ) ;
#162 = CARTESIAN_POINT ( 'NONE',  ( 0.000000000000000000, 0.000000000000000000, 1000.000000000000000 ) ) ;
#163 = EDGE_LOOP ( 'NONE', ( #50, #170 ) ) ;
#164 = EDGE_CURVE ( 'NONE', #80, #69, #125, .T. ) ;
#165 =( NAMED_UNIT ( * ) SI_UNIT ( $, .STERADIAN. ) SOLID_ANGLE_UNIT ( ) );
#166 =( REPRESENTATION_RELATIONSHIP ('NONE','NONE', #127, #115 ) REPRESENTATION_RELATIONSHIP_WITH_TRANSFORMATION ( #237 )SHAPE_REPRESENTATION_RELATIONSHIP( ) );
#167 = AXIS2_PLACEMENT_3D ( 'NONE', #162, #39, #24 ) ;
#168 = PRODUCT_DEFINITION ( 'UNKNOWN', '', #51, #187 ) ;
#169 = ORIENTED_EDGE ( 'NONE', *, *, #133, .T. ) ;
#170 = ORIENTED_EDGE ( 'NONE', *, *, #18, .F. ) ;
#171 = SURFACE_STYLE_FILL_AREA ( #91 ) ;
#172 = ADVANCED_FACE ( 'NONE', ( #236 ), #220, .T. ) ;
#173 = CARTESIAN_POINT ( 'NONE',  ( -5.000000000000000000, 0.000000000000000000, 1000.000000000000000 ) ) ;
#174 = DIRECTION ( 'NONE',  ( -0.000000000000000000, -0.000000000000000000, -1.000000000000000000 ) ) ;
#175 = ORIENTED_EDGE ( 'NONE', *, *, #32, .T. ) ;
#176 = CARTESIAN_POINT ( 'NONE',  ( 0.000000000000000000, 0.000000000000000000, 0.000000000000000000 ) ) ;
#177 = AXIS2_PLACEMENT_3D ( 'NONE', #197, #105, #181 ) ;
#178 = SURFACE_STYLE_USAGE ( .BOTH. , #179 ) ;
#179 = SURFACE_SIDE_STYLE ('',( #19 ) ) ;
#180 = PRODUCT_DEFINITION_SHAPE ( 'NONE', 'NONE',  #251 ) ;
#181 = DIRECTION ( 'NONE',  ( 1.000000000000000000, 0.000000000000000000, 0.000000000000000000 ) ) ;
#182 = AXIS2_PLACEMENT_3D ( 'NONE', #109, #201, #223 ) ;
#183 = EDGE_LOOP ( 'NONE', ( #11, #65 ) ) ;
#184 = ORIENTED_EDGE ( 'NONE', *, *, #6, .T. ) ;
#185 = PRODUCT_CONTEXT ( 'NONE', #119, 'mechanical' ) ;
#186 = VERTEX_POINT ( 'NONE', #63 ) ;
#187 = PRODUCT_DEFINITION_CONTEXT ( 'detailed design', #161, 'design' ) ;
#188 = ORIENTED_EDGE ( 'NONE', *, *, #164, .T. ) ;
#189 = APPLICATION_CONTEXT ( 'automotive_design' ) ;
#190 = CARTESIAN_POINT ( 'NONE',  ( 0.000000000000000000, 0.000000000000000000, 0.000000000000000000 ) ) ;
#191 = EDGE_CURVE ( 'NONE', #80, #106, #43, .T. ) ;
#192 = DIRECTION ( 'NONE',  ( 1.000000000000000000, 0.000000000000000000, 0.000000000000000000 ) ) ;
#193 = LINE ( 'NONE', #154, #123 ) ;
#194 = FACE_BOUND ( 'NONE', #224, .T. ) ;
#195 = CARTESIAN_POINT ( 'NONE',  ( 4.000000000000000000, 4.898587196589412829E-16, 0.000000000000000000 ) ) ;
#196 = STYLED_ITEM ( 'NONE', ( #250 ), #145 ) ;
#197 = CARTESIAN_POINT ( 'NONE',  ( 0.000000000000000000, 0.000000000000000000, 0.000000000000000000 ) ) ;
#198 = AXIS2_PLACEMENT_3D ( 'NONE', #79, #222, #147 ) ;
#199 = EDGE_CURVE ( 'NONE', #106, #80, #83, .T. ) ;
#200 = CIRCLE ( 'NONE', #238, 4.000000000000000000 ) ;
#201 = DIRECTION ( 'NONE',  ( 0.000000000000000000, 0.000000000000000000, 1.000000000000000000 ) ) ;
#202 = PRODUCT_DEFINITION_SHAPE ( 'NONE', 'NONE',  #168 ) ;
#203 = SHAPE_DEFINITION_REPRESENTATION ( #202, #127 ) ;
#204 = ORIENTED_EDGE ( 'NONE', *, *, #32, .F. ) ;
#205 = DIRECTION ( 'NONE',  ( 1.000000000000000000, 0.000000000000000000, 0.000000000000000000 ) ) ;
#206 = VERTEX_POINT ( 'NONE', #122 ) ;
#207 = UNCERTAINTY_MEASURE_WITH_UNIT (LENGTH_MEASURE( 1.000000000000000082E-05 ), #235, 'distance_accuracy_value', 'NONE');
#208 = PRODUCT_DEFINITION_CONTEXT ( 'detailed design', #189, 'design' ) ;
#209 = STYLED_ITEM ( 'NONE', ( #129 ), #151 ) ;
#210 = CARTESIAN_POINT ( 'NONE',  ( 0.000000000000000000, 0.000000000000000000, 1000.000000000000000 ) ) ;
#211 = PRODUCT_DEFINITION ( 'UNKNOWN', '', #131, #208 ) ;
#212 = DIRECTION ( 'NONE',  ( -0.000000000000000000, -0.000000000000000000, -1.000000000000000000 ) ) ;
#213 = CYLINDRICAL_SURFACE ( 'NONE', #128, 4.000000000000000000 ) ;
#214 = AXIS2_PLACEMENT_3D ( 'NONE', #232, #229, #192 ) ;
#215 = FACE_BOUND ( 'NONE', #163, .T. ) ;
#216 = CARTESIAN_POINT ( 'NONE',  ( 0.000000000000000000, 0.000000000000000000, 0.000000000000000000 ) ) ;
#217 = FILL_AREA_STYLE_COLOUR ( '', #64 ) ;
#218 = CARTESIAN_POINT ( 'NONE',  ( 0.000000000000000000, 0.000000000000000000, 1000.000000000000000 ) ) ;
#219 = AXIS2_PLACEMENT_3D ( 'NONE', #190, #60, #42 ) ;
#220 = CYLINDRICAL_SURFACE ( 'NONE', #167, 5.000000000000000000 ) ;
#221 = DIRECTION ( 'NONE',  ( 1.000000000000000000, 0.000000000000000000, 0.000000000000000000 ) ) ;
#222 = DIRECTION ( 'NONE',  ( 0.000000000000000000, 0.000000000000000000, 1.000000000000000000 ) ) ;
#223 = DIRECTION ( 'NONE',  ( 1.000000000000000000, 0.000000000000000000, 0.000000000000000000 ) ) ;
#224 = EDGE_LOOP ( 'NONE', ( #2, #239 ) ) ;
#225 = CARTESIAN_POINT ( 'NONE',  ( 0.000000000000000000, 0.000000000000000000, 0.000000000000000000 ) ) ;
#226 = ORIENTED_EDGE ( 'NONE', *, *, #149, .T. ) ;
#227 = ORIENTED_EDGE ( 'NONE', *, *, #82, .F. ) ;
#228 = VECTOR ( 'NONE', #100, 1000.000000000000000 ) ;
#229 = DIRECTION ( 'NONE',  ( 0.000000000000000000, 0.000000000000000000, 1.000000000000000000 ) ) ;
#230 = DIRECTION ( 'NONE',  ( -1.000000000000000000, 0.000000000000000000, 0.000000000000000000 ) ) ;
#231 = DIRECTION ( 'NONE',  ( 1.000000000000000000, 0.000000000000000000, 0.000000000000000000 ) ) ;
#232 = CARTESIAN_POINT ( 'NONE',  ( 0.000000000000000000, 0.000000000000000000, 0.000000000000000000 ) ) ;
#233 = FACE_OUTER_BOUND ( 'NONE', #183, .T. ) ;
#234 = AXIS2_PLACEMENT_3D ( 'NONE', #225, #49, #205 ) ;
#235 =( LENGTH_UNIT ( ) NAMED_UNIT ( * ) SI_UNIT ( .MILLI., .METRE. ) );
#236 = FACE_OUTER_BOUND ( 'NONE', #90, .T. ) ;
#237 = ITEM_DEFINED_TRANSFORMATION ( 'NONE', 'NONE', #182,  #177 ) ;
#238 = AXIS2_PLACEMENT_3D ( 'NONE', #73, #158, #231 ) ;
#239 = ORIENTED_EDGE ( 'NONE', *, *, #156, .T. ) ;
#240 = PRODUCT ( '\X2\04210431043e0440043a0430\X0\9', '\X2\04210431043e0440043a0430\X0\9', '', ( #134 ) ) ;
#241 =( LENGTH_UNIT ( ) NAMED_UNIT ( * ) SI_UNIT ( .MILLI., .METRE. ) );
#242 = AXIS2_PLACEMENT_3D ( 'NONE', #248, #143, #74 ) ;
#243 = UNCERTAINTY_MEASURE_WITH_UNIT (LENGTH_MEASURE( 1.000000000000000082E-05 ), #126, 'distance_accuracy_value', 'NONE');
#244 = ORIENTED_EDGE ( 'NONE', *, *, #156, .F. ) ;
#245 = SURFACE_SIDE_STYLE ('',( #171 ) ) ;
#246 = PLANE ( 'NONE',  #242 ) ;
#247 = LINE ( 'NONE', #140, #118 ) ;
#248 = CARTESIAN_POINT ( 'NONE',  ( 0.000000000000000000, 0.000000000000000000, 1000.000000000000000 ) ) ;
#249 = CARTESIAN_POINT ( 'NONE',  ( -5.000000000000000000, 0.000000000000000000, 1000.000000000000000 ) ) ;
#250 = PRESENTATION_STYLE_ASSIGNMENT (( #178 ) ) ;
#251 = NEXT_ASSEMBLY_USAGE_OCCURRENCE ( 'NAUO1', ' ', ' ', #168, #211, $ ) ;
ENDSEC;
END-ISO-10303-21;
