ISO-10303-21;
HEADER;
FILE_DESCRIPTION (( 'STEP AP214' ),
    '1' );
FILE_NAME ('Ñáîðêà10.STEP',
    '2025-03-28T11:23:35',
    ( '' ),
    ( '' ),
    'SwSTEP 2.0',
    'SolidWorks 2025',
    '' );
FILE_SCHEMA (( 'AUTOMOTIVE_DESIGN' ));
ENDSEC;

DATA;
#1 = VERTEX_POINT ( 'NONE', #55 ) ;
#2 = PRODUCT_RELATED_PRODUCT_CATEGORY ( 'part', '', ( #175 ) ) ;
#3 = ORIENTED_EDGE ( 'NONE', *, *, #15, .T. ) ;
#4 = AXIS2_PLACEMENT_3D ( 'NONE', #247, #245, #129 ) ;
#5 = CARTESIAN_POINT ( 'NONE',  ( 10.00000000000000000, 1.224646799147353256E-15, 0.000000000000000000 ) ) ;
#6 = DIRECTION ( 'NONE',  ( -0.000000000000000000, -0.000000000000000000, -1.000000000000000000 ) ) ;
#7 = DIRECTION ( 'NONE',  ( 0.000000000000000000, 0.000000000000000000, 1.000000000000000000 ) ) ;
#8 = AXIS2_PLACEMENT_3D ( 'NONE', #140, #43, #126 ) ;
#9 = ADVANCED_BREP_SHAPE_REPRESENTATION ( '', ( #21, #214 ), #246 ) ;
#10 =( NAMED_UNIT ( * ) PLANE_ANGLE_UNIT ( ) SI_UNIT ( $, .RADIAN. ) );
#11 = DIRECTION ( 'NONE',  ( -0.000000000000000000, -0.000000000000000000, -1.000000000000000000 ) ) ;
#12 = EDGE_LOOP ( 'NONE', ( #197, #171 ) ) ;
#13 = DIRECTION ( 'NONE',  ( 0.000000000000000000, 0.000000000000000000, 1.000000000000000000 ) ) ;
#14 = PRODUCT_CONTEXT ( 'NONE', #97, 'mechanical' ) ;
#15 = EDGE_CURVE ( 'NONE', #60, #191, #230, .T. ) ;
#16 = PRODUCT_CONTEXT ( 'NONE', #74, 'mechanical' ) ;
#17 = DIRECTION ( 'NONE',  ( 1.000000000000000000, 0.000000000000000000, 0.000000000000000000 ) ) ;
#18 = AXIS2_PLACEMENT_3D ( 'NONE', #143, #81, #178 ) ;
#19 = UNCERTAINTY_MEASURE_WITH_UNIT (LENGTH_MEASURE( 1.000000000000000082E-05 ), #150, 'distance_accuracy_value', 'NONE');
#20 = FACE_OUTER_BOUND ( 'NONE', #110, .T. ) ;
#21 = MANIFOLD_SOLID_BREP ( '\X2\0411043e0431044b0448043a0430\X0\-\X2\0412044b0442044f043d04430442044c\X0\1', #117 ) ;
#22 = DIRECTION ( 'NONE',  ( 1.000000000000000000, 0.000000000000000000, 0.000000000000000000 ) ) ;
#23 = CIRCLE ( 'NONE', #99, 10.00000000000000000 ) ;
#24 = CARTESIAN_POINT ( 'NONE',  ( -8.500000000000000000, 0.000000000000000000, 0.000000000000000000 ) ) ;
#25 = EDGE_CURVE ( 'NONE', #60, #179, #125, .T. ) ;
#26 = FACE_OUTER_BOUND ( 'NONE', #12, .T. ) ;
#27 =( LENGTH_UNIT ( ) NAMED_UNIT ( * ) SI_UNIT ( .MILLI., .METRE. ) );
#28 = MECHANICAL_DESIGN_GEOMETRIC_PRESENTATION_REPRESENTATION (  '', ( #67 ), #220 ) ;
#29 = CARTESIAN_POINT ( 'NONE',  ( -8.500000000000000000, 0.000000000000000000, 1000.000000000000000 ) ) ;
#30 = EDGE_LOOP ( 'NONE', ( #57, #189 ) ) ;
#31 = CARTESIAN_POINT ( 'NONE',  ( 0.000000000000000000, 0.000000000000000000, 1000.000000000000000 ) ) ;
#32 =( NAMED_UNIT ( * ) SI_UNIT ( $, .STERADIAN. ) SOLID_ANGLE_UNIT ( ) );
#33 = SURFACE_STYLE_USAGE ( .BOTH. , #52 ) ;
#34 = SHAPE_REPRESENTATION_RELATIONSHIP ( 'NONE' , 'NONE' ,  #120, #9 ) ;
#35 = ADVANCED_FACE ( 'NONE', ( #20 ), #137, .F. ) ;
#36 = AXIS2_PLACEMENT_3D ( 'NONE', #98, #13, #112 ) ;
#37 = SHAPE_REPRESENTATION ( '\X2\04210431043e0440043a0430\X0\10', ( #36, #232 ), #127 ) ;
#38 = UNCERTAINTY_MEASURE_WITH_UNIT (LENGTH_MEASURE( 1.000000000000000082E-05 ), #211, 'distance_accuracy_value', 'NONE');
#39 = DIRECTION ( 'NONE',  ( 1.000000000000000000, 0.000000000000000000, 0.000000000000000000 ) ) ;
#40 = EDGE_LOOP ( 'NONE', ( #115, #3, #87, #163 ) ) ;
#41 = DIRECTION ( 'NONE',  ( 1.000000000000000000, 0.000000000000000000, -0.000000000000000000 ) ) ;
#42 = VECTOR ( 'NONE', #11, 1000.000000000000000 ) ;
#43 = DIRECTION ( 'NONE',  ( -0.000000000000000000, -0.000000000000000000, -1.000000000000000000 ) ) ;
#44 = EDGE_CURVE ( 'NONE', #179, #60, #23, .T. ) ;
#45 = LINE ( 'NONE', #50, #152 ) ;
#46 = PRODUCT_RELATED_PRODUCT_CATEGORY ( 'part', '', ( #157 ) ) ;
#47 = FACE_OUTER_BOUND ( 'NONE', #242, .T. ) ;
#48 = ORIENTED_EDGE ( 'NONE', *, *, #170, .F. ) ;
#49 = AXIS2_PLACEMENT_3D ( 'NONE', #176, #156, #39 ) ;
#50 = CARTESIAN_POINT ( 'NONE',  ( 8.500000000000000000, 1.040949779275250140E-15, 1000.000000000000000 ) ) ;
#51 = ORIENTED_EDGE ( 'NONE', *, *, #111, .F. ) ;
#52 = SURFACE_SIDE_STYLE ('',( #209 ) ) ;
#53 = CIRCLE ( 'NONE', #49, 10.00000000000000000 ) ;
#54 = APPLICATION_PROTOCOL_DEFINITION ( 'draft international standard', 'automotive_design', 1998, #74 ) ;
#55 = CARTESIAN_POINT ( 'NONE',  ( 8.500000000000000000, 1.040949779275250140E-15, 0.000000000000000000 ) ) ;
#56 = VECTOR ( 'NONE', #151, 1000.000000000000000 ) ;
#57 = ORIENTED_EDGE ( 'NONE', *, *, #193, .F. ) ;
#58 = PRESENTATION_STYLE_ASSIGNMENT (( #132 ) ) ;
#59 = AXIS2_PLACEMENT_3D ( 'NONE', #128, #199, #105 ) ;
#60 = VERTEX_POINT ( 'NONE', #61 ) ;
#61 = CARTESIAN_POINT ( 'NONE',  ( 10.00000000000000000, 1.224646799147353256E-15, 1000.000000000000000 ) ) ;
#62 = CIRCLE ( 'NONE', #107, 8.500000000000000000 ) ;
#63 = EDGE_CURVE ( 'NONE', #191, #227, #183, .T. ) ;
#64 = DIRECTION ( 'NONE',  ( 0.000000000000000000, 0.000000000000000000, 1.000000000000000000 ) ) ;
#65 = ORIENTED_EDGE ( 'NONE', *, *, #44, .T. ) ;
#66 = CARTESIAN_POINT ( 'NONE',  ( 0.000000000000000000, 0.000000000000000000, 1000.000000000000000 ) ) ;
#67 = STYLED_ITEM ( 'NONE', ( #58 ), #9 ) ;
#68 = FACE_BOUND ( 'NONE', #233, .T. ) ;
#69 = MECHANICAL_DESIGN_GEOMETRIC_PRESENTATION_REPRESENTATION (  '', ( #142 ), #195 ) ;
#70 = CYLINDRICAL_SURFACE ( 'NONE', #96, 10.00000000000000000 ) ;
#71 = ORIENTED_EDGE ( 'NONE', *, *, #25, .T. ) ;
#72 = CARTESIAN_POINT ( 'NONE',  ( 0.000000000000000000, 0.000000000000000000, 0.000000000000000000 ) ) ;
#73 = DIRECTION ( 'NONE',  ( 0.000000000000000000, 0.000000000000000000, 1.000000000000000000 ) ) ;
#74 = APPLICATION_CONTEXT ( 'automotive_design' ) ;
#75 = CIRCLE ( 'NONE', #92, 8.500000000000000000 ) ;
#76 = DIRECTION ( 'NONE',  ( 0.000000000000000000, 0.000000000000000000, 1.000000000000000000 ) ) ;
#77 = COLOUR_RGB ( '',0.8666666666666666963, 0.9098039215686274384, 1.000000000000000000 ) ;
#78 = EDGE_CURVE ( 'NONE', #227, #191, #53, .T. ) ;
#79 = UNCERTAINTY_MEASURE_WITH_UNIT (LENGTH_MEASURE( 1.000000000000000082E-05 ), #27, 'distance_accuracy_value', 'NONE');
#80 = PRODUCT_DEFINITION_SHAPE ( 'NONE', 'NONE',  #251 ) ;
#81 = DIRECTION ( 'NONE',  ( 0.000000000000000000, 0.000000000000000000, 1.000000000000000000 ) ) ;
#82 = ORIENTED_EDGE ( 'NONE', *, *, #15, .F. ) ;
#83 = CARTESIAN_POINT ( 'NONE',  ( -8.500000000000000000, 0.000000000000000000, 1000.000000000000000 ) ) ;
#84 = ORIENTED_EDGE ( 'NONE', *, *, #184, .T. ) ;
#85 = CARTESIAN_POINT ( 'NONE',  ( -10.00000000000000000, 0.000000000000000000, 1000.000000000000000 ) ) ;
#86 = ADVANCED_FACE ( 'NONE', ( #174 ), #248, .F. ) ;
#87 = ORIENTED_EDGE ( 'NONE', *, *, #63, .T. ) ;
#88 = CIRCLE ( 'NONE', #59, 8.500000000000000000 ) ;
#89 = CARTESIAN_POINT ( 'NONE',  ( 0.000000000000000000, 0.000000000000000000, 1000.000000000000000 ) ) ;
#90 = DIRECTION ( 'NONE',  ( -0.000000000000000000, -0.000000000000000000, -1.000000000000000000 ) ) ;
#91 = FILL_AREA_STYLE ('',( #147 ) ) ;
#92 = AXIS2_PLACEMENT_3D ( 'NONE', #72, #146, #201 ) ;
#93 = CARTESIAN_POINT ( 'NONE',  ( 0.000000000000000000, 0.000000000000000000, 0.000000000000000000 ) ) ;
#94 = APPLICATION_PROTOCOL_DEFINITION ( 'draft international standard', 'automotive_design', 1998, #133 ) ;
#95 = CARTESIAN_POINT ( 'NONE',  ( 0.000000000000000000, 0.000000000000000000, 1000.000000000000000 ) ) ;
#96 = AXIS2_PLACEMENT_3D ( 'NONE', #103, #166, #228 ) ;
#97 = APPLICATION_CONTEXT ( 'automotive_design' ) ;
#98 = CARTESIAN_POINT ( 'NONE',  ( 0.000000000000000000, 0.000000000000000000, 0.000000000000000000 ) ) ;
#99 = AXIS2_PLACEMENT_3D ( 'NONE', #194, #250, #162 ) ;
#100 = PRESENTATION_LAYER_ASSIGNMENT (  '', '', ( #142 ) ) ;
#101 = EDGE_LOOP ( 'NONE', ( #206, #113, #51, #177 ) ) ;
#102 = LINE ( 'NONE', #83, #200 ) ;
#103 = CARTESIAN_POINT ( 'NONE',  ( 0.000000000000000000, 0.000000000000000000, 1000.000000000000000 ) ) ;
#104 = PRODUCT_DEFINITION_CONTEXT ( 'detailed design', #133, 'design' ) ;
#105 = DIRECTION ( 'NONE',  ( 1.000000000000000000, 0.000000000000000000, 0.000000000000000000 ) ) ;
#106 = PRODUCT_DEFINITION ( 'UNKNOWN', '', #139, #213 ) ;
#107 = AXIS2_PLACEMENT_3D ( 'NONE', #124, #7, #198 ) ;
#108 =( NAMED_UNIT ( * ) SI_UNIT ( $, .STERADIAN. ) SOLID_ANGLE_UNIT ( ) );
#109 =( REPRESENTATION_RELATIONSHIP ('NONE','NONE', #37, #120 ) REPRESENTATION_RELATIONSHIP_WITH_TRANSFORMATION ( #207 )SHAPE_REPRESENTATION_RELATIONSHIP( ) );
#110 = EDGE_LOOP ( 'NONE', ( #48, #172, #219, #239 ) ) ;
#111 = EDGE_CURVE ( 'NONE', #144, #1, #75, .T. ) ;
#112 = DIRECTION ( 'NONE',  ( 1.000000000000000000, 0.000000000000000000, 0.000000000000000000 ) ) ;
#113 = ORIENTED_EDGE ( 'NONE', *, *, #170, .T. ) ;
#114 = APPLICATION_PROTOCOL_DEFINITION ( 'draft international standard', 'automotive_design', 1998, #97 ) ;
#115 = ORIENTED_EDGE ( 'NONE', *, *, #25, .F. ) ;
#116 = SHAPE_DEFINITION_REPRESENTATION ( #181, #37 ) ;
#117 = CLOSED_SHELL ( 'NONE', ( #86, #135, #149, #243, #204, #35 ) ) ;
#118 = ORIENTED_EDGE ( 'NONE', *, *, #44, .F. ) ;
#119 = VERTEX_POINT ( 'NONE', #29 ) ;
#120 = SHAPE_REPRESENTATION ( 'TR20S1,5 \X2\041f0440043e04440438043b044c\X0\ \X2\0430043b044e043c0438043d043804350432044b0439\X0\, \X2\04420440044304310430\X0\ \X2\00d8\X0\20\X2\0445\X0\1,5 (\X2\041104350437\X0\ \X2\043f043e043a0440044b04420438044f\X0\)_00', ( #214 ), #246 ) ;
#121 = EDGE_CURVE ( 'NONE', #179, #227, #138, .T. ) ;
#122 = AXIS2_PLACEMENT_3D ( 'NONE', #216, #196, #22 ) ;
#123 = DIRECTION ( 'NONE',  ( -1.000000000000000000, 0.000000000000000000, 0.000000000000000000 ) ) ;
#124 = CARTESIAN_POINT ( 'NONE',  ( 0.000000000000000000, 0.000000000000000000, 0.000000000000000000 ) ) ;
#125 = CIRCLE ( 'NONE', #158, 10.00000000000000000 ) ;
#126 = DIRECTION ( 'NONE',  ( -1.000000000000000000, 0.000000000000000000, 0.000000000000000000 ) ) ;
#127 =( GEOMETRIC_REPRESENTATION_CONTEXT ( 3 ) GLOBAL_UNCERTAINTY_ASSIGNED_CONTEXT ( ( #19 ) ) GLOBAL_UNIT_ASSIGNED_CONTEXT ( ( #150, #154, #32 ) ) REPRESENTATION_CONTEXT ( 'NONE', 'WORKASPACE' ) );
#128 = CARTESIAN_POINT ( 'NONE',  ( 0.000000000000000000, 0.000000000000000000, 1000.000000000000000 ) ) ;
#129 = DIRECTION ( 'NONE',  ( 1.000000000000000000, 0.000000000000000000, 0.000000000000000000 ) ) ;
#130 = DIRECTION ( 'NONE',  ( 1.000000000000000000, 0.000000000000000000, 0.000000000000000000 ) ) ;
#131 = VERTEX_POINT ( 'NONE', #244 ) ;
#132 = SURFACE_STYLE_USAGE ( .BOTH. , #229 ) ;
#133 = APPLICATION_CONTEXT ( 'automotive_design' ) ;
#134 = SURFACE_STYLE_FILL_AREA ( #91 ) ;
#135 = ADVANCED_FACE ( 'NONE', ( #218 ), #70, .T. ) ;
#136 = PRESENTATION_LAYER_ASSIGNMENT (  '', '', ( #67 ) ) ;
#137 = CYLINDRICAL_SURFACE ( 'NONE', #205, 8.500000000000000000 ) ;
#138 = LINE ( 'NONE', #85, #42 ) ;
#139 = PRODUCT_DEFINITION_FORMATION_WITH_SPECIFIED_SOURCE ( 'ANY', '', #157, .NOT_KNOWN. ) ;
#140 = CARTESIAN_POINT ( 'NONE',  ( 0.000000000000000000, 0.000000000000000000, 1000.000000000000000 ) ) ;
#141 = EDGE_CURVE ( 'NONE', #119, #144, #102, .T. ) ;
#142 = STYLED_ITEM ( 'NONE', ( #161 ), #21 ) ;
#143 = CARTESIAN_POINT ( 'NONE',  ( 0.000000000000000000, 0.000000000000000000, 0.000000000000000000 ) ) ;
#144 = VERTEX_POINT ( 'NONE', #24 ) ;
#145 = CARTESIAN_POINT ( 'NONE',  ( 0.000000000000000000, 0.000000000000000000, 1000.000000000000000 ) ) ;
#146 = DIRECTION ( 'NONE',  ( 0.000000000000000000, 0.000000000000000000, 1.000000000000000000 ) ) ;
#147 = FILL_AREA_STYLE_COLOUR ( '', #77 ) ;
#148 = FILL_AREA_STYLE_COLOUR ( '', #249 ) ;
#149 = ADVANCED_FACE ( 'NONE', ( #47, #165 ), #221, .T. ) ;
#150 =( LENGTH_UNIT ( ) NAMED_UNIT ( * ) SI_UNIT ( .MILLI., .METRE. ) );
#151 = DIRECTION ( 'NONE',  ( -0.000000000000000000, -0.000000000000000000, -1.000000000000000000 ) ) ;
#152 = VECTOR ( 'NONE', #182, 1000.000000000000000 ) ;
#153 =( NAMED_UNIT ( * ) SI_UNIT ( $, .STERADIAN. ) SOLID_ANGLE_UNIT ( ) );
#154 =( NAMED_UNIT ( * ) PLANE_ANGLE_UNIT ( ) SI_UNIT ( $, .RADIAN. ) );
#155 = PRODUCT_DEFINITION ( 'UNKNOWN', '', #190, #104 ) ;
#156 = DIRECTION ( 'NONE',  ( 0.000000000000000000, 0.000000000000000000, 1.000000000000000000 ) ) ;
#157 = PRODUCT ( '\X2\04210431043e0440043a0430\X0\10', '\X2\04210431043e0440043a0430\X0\10', '', ( #14 ) ) ;
#158 = AXIS2_PLACEMENT_3D ( 'NONE', #95, #192, #17 ) ;
#159 =( NAMED_UNIT ( * ) PLANE_ANGLE_UNIT ( ) SI_UNIT ( $, .RADIAN. ) );
#160 = APPLICATION_CONTEXT ( 'automotive_design' ) ;
#161 = PRESENTATION_STYLE_ASSIGNMENT (( #33 ) ) ;
#162 = DIRECTION ( 'NONE',  ( 1.000000000000000000, 0.000000000000000000, 0.000000000000000000 ) ) ;
#163 = ORIENTED_EDGE ( 'NONE', *, *, #121, .F. ) ;
#164 = AXIS2_PLACEMENT_3D ( 'NONE', #89, #64, #180 ) ;
#165 = FACE_BOUND ( 'NONE', #30, .T. ) ;
#166 = DIRECTION ( 'NONE',  ( -0.000000000000000000, -0.000000000000000000, -1.000000000000000000 ) ) ;
#167 = ORIENTED_EDGE ( 'NONE', *, *, #111, .T. ) ;
#168 = UNCERTAINTY_MEASURE_WITH_UNIT (LENGTH_MEASURE( 1.000000000000000082E-05 ), #208, 'distance_accuracy_value', 'NONE');
#169 = CARTESIAN_POINT ( 'NONE',  ( -10.00000000000000000, 0.000000000000000000, 1000.000000000000000 ) ) ;
#170 = EDGE_CURVE ( 'NONE', #131, #1, #45, .T. ) ;
#171 = ORIENTED_EDGE ( 'NONE', *, *, #63, .F. ) ;
#172 = ORIENTED_EDGE ( 'NONE', *, *, #223, .T. ) ;
#173 = SHAPE_DEFINITION_REPRESENTATION ( #225, #120 ) ;
#174 = FACE_OUTER_BOUND ( 'NONE', #101, .T. ) ;
#175 = PRODUCT ( 'TR20S1,5 \X2\041f0440043e04440438043b044c\X0\ \X2\0430043b044e043c0438043d043804350432044b0439\X0\, \X2\04420440044304310430\X0\ \X2\00d8\X0\20\X2\0445\X0\1,5 (\X2\041104350437\X0\ \X2\043f043e043a0440044b04420438044f\X0\)_00', 'TR20S1,5 \X2\041f0440043e04440438043b044c\X0\ \X2\0430043b044e043c0438043d043804350432044b0439\X0\, \X2\04420440044304310430\X0\ \X2\00d8\X0\20\X2\0445\X0\1,5 (\X2\041104350437\X0\ \X2\043f043e043a0440044b04420438044f\X0\)_00', '', ( #16 ) ) ;
#176 = CARTESIAN_POINT ( 'NONE',  ( 0.000000000000000000, 0.000000000000000000, 0.000000000000000000 ) ) ;
#177 = ORIENTED_EDGE ( 'NONE', *, *, #141, .F. ) ;
#178 = DIRECTION ( 'NONE',  ( 1.000000000000000000, 0.000000000000000000, -0.000000000000000000 ) ) ;
#179 = VERTEX_POINT ( 'NONE', #169 ) ;
#180 = DIRECTION ( 'NONE',  ( 1.000000000000000000, 0.000000000000000000, 0.000000000000000000 ) ) ;
#181 = PRODUCT_DEFINITION_SHAPE ( 'NONE', 'NONE',  #106 ) ;
#182 = DIRECTION ( 'NONE',  ( -0.000000000000000000, -0.000000000000000000, -1.000000000000000000 ) ) ;
#183 = CIRCLE ( 'NONE', #122, 10.00000000000000000 ) ;
#184 = EDGE_CURVE ( 'NONE', #1, #144, #62, .T. ) ;
#185 = EDGE_LOOP ( 'NONE', ( #82, #118, #222, #234 ) ) ;
#186 = DIRECTION ( 'NONE',  ( 1.000000000000000000, 0.000000000000000000, 0.000000000000000000 ) ) ;
#187 = CARTESIAN_POINT ( 'NONE',  ( 10.00000000000000000, 1.224646799147353256E-15, 1000.000000000000000 ) ) ;
#188 =( NAMED_UNIT ( * ) PLANE_ANGLE_UNIT ( ) SI_UNIT ( $, .RADIAN. ) );
#189 = ORIENTED_EDGE ( 'NONE', *, *, #223, .F. ) ;
#190 = PRODUCT_DEFINITION_FORMATION_WITH_SPECIFIED_SOURCE ( 'ANY', '', #175, .NOT_KNOWN. ) ;
#191 = VERTEX_POINT ( 'NONE', #5 ) ;
#192 = DIRECTION ( 'NONE',  ( 0.000000000000000000, 0.000000000000000000, 1.000000000000000000 ) ) ;
#193 = EDGE_CURVE ( 'NONE', #119, #131, #88, .T. ) ;
#194 = CARTESIAN_POINT ( 'NONE',  ( 0.000000000000000000, 0.000000000000000000, 1000.000000000000000 ) ) ;
#195 =( GEOMETRIC_REPRESENTATION_CONTEXT ( 3 ) GLOBAL_UNCERTAINTY_ASSIGNED_CONTEXT ( ( #38 ) ) GLOBAL_UNIT_ASSIGNED_CONTEXT ( ( #211, #159, #217 ) ) REPRESENTATION_CONTEXT ( 'NONE', 'WORKASPACE' ) );
#196 = DIRECTION ( 'NONE',  ( 0.000000000000000000, 0.000000000000000000, 1.000000000000000000 ) ) ;
#197 = ORIENTED_EDGE ( 'NONE', *, *, #78, .F. ) ;
#198 = DIRECTION ( 'NONE',  ( 1.000000000000000000, 0.000000000000000000, 0.000000000000000000 ) ) ;
#199 = DIRECTION ( 'NONE',  ( 0.000000000000000000, 0.000000000000000000, 1.000000000000000000 ) ) ;
#200 = VECTOR ( 'NONE', #90, 1000.000000000000000 ) ;
#201 = DIRECTION ( 'NONE',  ( 1.000000000000000000, 0.000000000000000000, 0.000000000000000000 ) ) ;
#202 = DIRECTION ( 'NONE',  ( -1.000000000000000000, 0.000000000000000000, 0.000000000000000000 ) ) ;
#203 = CARTESIAN_POINT ( 'NONE',  ( 996.8561698549032144, 1006.264176258597786, 496.8806719085905570 ) ) ;
#204 = ADVANCED_FACE ( 'NONE', ( #238 ), #224, .T. ) ;
#205 = AXIS2_PLACEMENT_3D ( 'NONE', #31, #212, #123 ) ;
#206 = ORIENTED_EDGE ( 'NONE', *, *, #193, .T. ) ;
#207 = ITEM_DEFINED_TRANSFORMATION ( 'NONE', 'NONE', #232,  #214 ) ;
#208 =( LENGTH_UNIT ( ) NAMED_UNIT ( * ) SI_UNIT ( .MILLI., .METRE. ) );
#209 = SURFACE_STYLE_FILL_AREA ( #235 ) ;
#210 = AXIS2_PLACEMENT_3D ( 'NONE', #145, #237, #41 ) ;
#211 =( LENGTH_UNIT ( ) NAMED_UNIT ( * ) SI_UNIT ( .MILLI., .METRE. ) );
#212 = DIRECTION ( 'NONE',  ( -0.000000000000000000, -0.000000000000000000, -1.000000000000000000 ) ) ;
#213 = PRODUCT_DEFINITION_CONTEXT ( 'detailed design', #160, 'design' ) ;
#214 = AXIS2_PLACEMENT_3D ( 'NONE', #93, #76, #186 ) ;
#215 = CONTEXT_DEPENDENT_SHAPE_REPRESENTATION ( #109, #80 ) ;
#216 = CARTESIAN_POINT ( 'NONE',  ( 0.000000000000000000, 0.000000000000000000, 0.000000000000000000 ) ) ;
#217 =( NAMED_UNIT ( * ) SI_UNIT ( $, .STERADIAN. ) SOLID_ANGLE_UNIT ( ) );
#218 = FACE_OUTER_BOUND ( 'NONE', #40, .T. ) ;
#219 = ORIENTED_EDGE ( 'NONE', *, *, #141, .T. ) ;
#220 =( GEOMETRIC_REPRESENTATION_CONTEXT ( 3 ) GLOBAL_UNCERTAINTY_ASSIGNED_CONTEXT ( ( #168 ) ) GLOBAL_UNIT_ASSIGNED_CONTEXT ( ( #208, #188, #153 ) ) REPRESENTATION_CONTEXT ( 'NONE', 'WORKASPACE' ) );
#221 = PLANE ( 'NONE',  #210 ) ;
#222 = ORIENTED_EDGE ( 'NONE', *, *, #121, .T. ) ;
#223 = EDGE_CURVE ( 'NONE', #131, #119, #236, .T. ) ;
#224 = CYLINDRICAL_SURFACE ( 'NONE', #8, 10.00000000000000000 ) ;
#225 = PRODUCT_DEFINITION_SHAPE ( 'NONE', 'NONE',  #155 ) ;
#226 = PLANE ( 'NONE',  #18 ) ;
#227 = VERTEX_POINT ( 'NONE', #241 ) ;
#228 = DIRECTION ( 'NONE',  ( -1.000000000000000000, 0.000000000000000000, 0.000000000000000000 ) ) ;
#229 = SURFACE_SIDE_STYLE ('',( #134 ) ) ;
#230 = LINE ( 'NONE', #187, #56 ) ;
#231 = APPLICATION_PROTOCOL_DEFINITION ( 'draft international standard', 'automotive_design', 1998, #160 ) ;
#232 = AXIS2_PLACEMENT_3D ( 'NONE', #203, #73, #130 ) ;
#233 = EDGE_LOOP ( 'NONE', ( #167, #84 ) ) ;
#234 = ORIENTED_EDGE ( 'NONE', *, *, #78, .T. ) ;
#235 = FILL_AREA_STYLE ('',( #148 ) ) ;
#236 = CIRCLE ( 'NONE', #164, 8.500000000000000000 ) ;
#237 = DIRECTION ( 'NONE',  ( 0.000000000000000000, 0.000000000000000000, 1.000000000000000000 ) ) ;
#238 = FACE_OUTER_BOUND ( 'NONE', #185, .T. ) ;
#239 = ORIENTED_EDGE ( 'NONE', *, *, #184, .F. ) ;
#240 = AXIS2_PLACEMENT_3D ( 'NONE', #66, #6, #202 ) ;
#241 = CARTESIAN_POINT ( 'NONE',  ( -10.00000000000000000, 0.000000000000000000, 0.000000000000000000 ) ) ;
#242 = EDGE_LOOP ( 'NONE', ( #65, #71 ) ) ;
#243 = ADVANCED_FACE ( 'NONE', ( #26, #68 ), #226, .F. ) ;
#244 = CARTESIAN_POINT ( 'NONE',  ( 8.500000000000000000, 1.040949779275250140E-15, 1000.000000000000000 ) ) ;
#245 = DIRECTION ( 'NONE',  ( 0.000000000000000000, 0.000000000000000000, 1.000000000000000000 ) ) ;
#246 =( GEOMETRIC_REPRESENTATION_CONTEXT ( 3 ) GLOBAL_UNCERTAINTY_ASSIGNED_CONTEXT ( ( #79 ) ) GLOBAL_UNIT_ASSIGNED_CONTEXT ( ( #27, #10, #108 ) ) REPRESENTATION_CONTEXT ( 'NONE', 'WORKASPACE' ) );
#247 = CARTESIAN_POINT ( 'NONE',  ( 0.000000000000000000, 0.000000000000000000, 0.000000000000000000 ) ) ;
#248 = CYLINDRICAL_SURFACE ( 'NONE', #240, 8.500000000000000000 ) ;
#249 = COLOUR_RGB ( '',0.8666666666666666963, 0.9098039215686274384, 1.000000000000000000 ) ;
#250 = DIRECTION ( 'NONE',  ( 0.000000000000000000, 0.000000000000000000, 1.000000000000000000 ) ) ;
#251 = NEXT_ASSEMBLY_USAGE_OCCURRENCE ( 'NAUO1', ' ', ' ', #106, #155, $ ) ;
ENDSEC;
END-ISO-10303-21;
