ISO-10303-21;
HEADER;
FILE_DESCRIPTION (( 'STEP AP214' ),
    '1' );
FILE_NAME ('Ñáîðêà1.STEP',
    '2024-12-27T14:16:48',
    ( '' ),
    ( '' ),
    'SwSTEP 2.0',
    'SolidWorks 2024',
    '' );
FILE_SCHEMA (( 'AUTOMOTIVE_DESIGN' ));
ENDSEC;

DATA;
#1 = DIRECTION ( 'NONE',  ( -0.000000000000000000, -0.000000000000000000, -1.000000000000000000 ) ) ;
#2 = EDGE_CURVE ( 'NONE', #194, #16, #391, .T. ) ;
#3 = APPLICATION_PROTOCOL_DEFINITION ( 'draft international standard', 'automotive_design', 1998, #31 ) ;
#4 = CYLINDRICAL_SURFACE ( 'NONE', #136, 11.50000000000000000 ) ;
#5 = CARTESIAN_POINT ( 'NONE',  ( -9.199999999999999289, 1.126675055215564822E-15, 5.500000000000000000 ) ) ;
#6 = LINE ( 'NONE', #155, #393 ) ;
#7 = AXIS2_PLACEMENT_3D ( 'NONE', #151, #304, #34 ) ;
#8 = AXIS2_PLACEMENT_3D ( 'NONE', #124, #42, #284 ) ;
#9 = EDGE_LOOP ( 'NONE', ( #110, #248, #380, #92 ) ) ;
#10 = CARTESIAN_POINT ( 'NONE',  ( 9.199999999999999289, 0.000000000000000000, -5.500000000000000000 ) ) ;
#11 = ADVANCED_FACE ( 'NONE', ( #260 ), #198, .F. ) ;
#12 = ORIENTED_EDGE ( 'NONE', *, *, #2, .T. ) ;
#13 = CARTESIAN_POINT ( 'NONE',  ( 0.000000000000000000, 0.000000000000000000, 7.500000000000000000 ) ) ;
#14 = ORIENTED_EDGE ( 'NONE', *, *, #108, .T. ) ;
#15 = DIRECTION ( 'NONE',  ( -1.000000000000000000, 0.000000000000000000, 0.000000000000000000 ) ) ;
#16 = VERTEX_POINT ( 'NONE', #19 ) ;
#17 = CIRCLE ( 'NONE', #218, 11.50000000000000000 ) ;
#18 = EDGE_LOOP ( 'NONE', ( #225, #99 ) ) ;
#19 = CARTESIAN_POINT ( 'NONE',  ( -11.50000000000000000, 0.000000000000000000, 5.500000000000000000 ) ) ;
#20 = EDGE_LOOP ( 'NONE', ( #33, #285 ) ) ;
#21 = ORIENTED_EDGE ( 'NONE', *, *, #68, .F. ) ;
#22 = PRODUCT_DEFINITION_SHAPE ( 'NONE', 'NONE',  #134 ) ;
#23 = FACE_BOUND ( 'NONE', #18, .T. ) ;
#24 = EDGE_CURVE ( 'NONE', #97, #150, #183, .T. ) ;
#25 = CLOSED_SHELL ( 'NONE', ( #190, #209, #195, #375, #381, #292, #37, #369, #11, #337, #52, #364 ) ) ;
#26 = DIRECTION ( 'NONE',  ( 0.000000000000000000, 0.000000000000000000, 1.000000000000000000 ) ) ;
#27 = CARTESIAN_POINT ( 'NONE',  ( 0.000000000000000000, 0.000000000000000000, -5.500000000000000000 ) ) ;
#28 = VERTEX_POINT ( 'NONE', #228 ) ;
#29 = CARTESIAN_POINT ( 'NONE',  ( 0.000000000000000000, 0.000000000000000000, 5.500000000000000000 ) ) ;
#30 = ORIENTED_EDGE ( 'NONE', *, *, #319, .F. ) ;
#31 = APPLICATION_CONTEXT ( 'automotive_design' ) ;
#32 = DIRECTION ( 'NONE',  ( 0.000000000000000000, 0.000000000000000000, 1.000000000000000000 ) ) ;
#33 = ORIENTED_EDGE ( 'NONE', *, *, #222, .T. ) ;
#34 = DIRECTION ( 'NONE',  ( 1.000000000000000000, 0.000000000000000000, 0.000000000000000000 ) ) ;
#35 = EDGE_LOOP ( 'NONE', ( #168, #113, #139, #301 ) ) ;
#36 = ORIENTED_EDGE ( 'NONE', *, *, #58, .T. ) ;
#37 = ADVANCED_FACE ( 'NONE', ( #85, #323 ), #55, .F. ) ;
#38 = AXIS2_PLACEMENT_3D ( 'NONE', #100, #286, #15 ) ;
#39 = EDGE_LOOP ( 'NONE', ( #256, #355, #211, #333 ) ) ;
#40 = PRESENTATION_STYLE_ASSIGNMENT (( #103 ) ) ;
#41 = ORIENTED_EDGE ( 'NONE', *, *, #43, .F. ) ;
#42 = DIRECTION ( 'NONE',  ( 0.000000000000000000, 0.000000000000000000, 1.000000000000000000 ) ) ;
#43 = EDGE_CURVE ( 'NONE', #164, #78, #106, .T. ) ;
#44 = DIRECTION ( 'NONE',  ( 0.000000000000000000, 0.000000000000000000, 1.000000000000000000 ) ) ;
#45 = ORIENTED_EDGE ( 'NONE', *, *, #146, .F. ) ;
#46 = AXIS2_PLACEMENT_3D ( 'NONE', #351, #81, #232 ) ;
#47 = CARTESIAN_POINT ( 'NONE',  ( 0.000000000000000000, 0.000000000000000000, -5.500000000000000000 ) ) ;
#48 =( NAMED_UNIT ( * ) SI_UNIT ( $, .STERADIAN. ) SOLID_ANGLE_UNIT ( ) );
#49 = DIRECTION ( 'NONE',  ( 1.000000000000000000, 0.000000000000000000, 0.000000000000000000 ) ) ;
#50 = LINE ( 'NONE', #166, #239 ) ;
#51 = SHAPE_REPRESENTATION ( 'B640 \X2\041d04300442044f0436043d043e0439\X0\ \X2\0430043b044e043c0438043d043804350432044b0439\X0\ \X2\0440043e043b0438043a\X0\ HTD3M, \X2\043f043e0434\X0\ \X2\04320430043b\X0\ 8\X2\043c043c\X0\', ( #312 ), #299 ) ;
#52 = ADVANCED_FACE ( 'NONE', ( #23, #227 ), #390, .F. ) ;
#53 = ORIENTED_EDGE ( 'NONE', *, *, #140, .T. ) ;
#54 = CIRCLE ( 'NONE', #274, 9.199999999999999289 ) ;
#55 = PLANE ( 'NONE',  #172 ) ;
#56 = DIRECTION ( 'NONE',  ( -1.000000000000000000, 0.000000000000000000, 0.000000000000000000 ) ) ;
#57 = LINE ( 'NONE', #243, #365 ) ;
#58 = EDGE_CURVE ( 'NONE', #315, #97, #50, .T. ) ;
#59 = DIRECTION ( 'NONE',  ( 1.000000000000000000, 0.000000000000000000, 0.000000000000000000 ) ) ;
#60 = VECTOR ( 'NONE', #132, 1000.000000000000000 ) ;
#61 = ITEM_DEFINED_TRANSFORMATION ( 'NONE', 'NONE', #367,  #312 ) ;
#62 = SURFACE_STYLE_FILL_AREA ( #329 ) ;
#63 = CARTESIAN_POINT ( 'NONE',  ( 11.50000000000000000, 1.408343819019456176E-15, -5.500000000000000000 ) ) ;
#64 = LINE ( 'NONE', #327, #385 ) ;
#65 = PRESENTATION_LAYER_ASSIGNMENT (  '', '', ( #177 ) ) ;
#66 = FACE_OUTER_BOUND ( 'NONE', #9, .T. ) ;
#67 = LINE ( 'NONE', #10, #60 ) ;
#68 = EDGE_CURVE ( 'NONE', #105, #242, #117, .T. ) ;
#69 = FACE_OUTER_BOUND ( 'NONE', #342, .T. ) ;
#70 = ORIENTED_EDGE ( 'NONE', *, *, #24, .T. ) ;
#71 = CARTESIAN_POINT ( 'NONE',  ( -11.50000000000000000, 0.000000000000000000, -5.500000000000000000 ) ) ;
#72 = CIRCLE ( 'NONE', #252, 11.50000000000000000 ) ;
#73 = PRODUCT_DEFINITION_FORMATION_WITH_SPECIFIED_SOURCE ( 'ANY', '', #356, .NOT_KNOWN. ) ;
#74 = LINE ( 'NONE', #249, #371 ) ;
#75 = EDGE_CURVE ( 'NONE', #28, #150, #57, .T. ) ;
#76 = ORIENTED_EDGE ( 'NONE', *, *, #314, .F. ) ;
#77 = DIRECTION ( 'NONE',  ( 1.000000000000000000, 0.000000000000000000, 0.000000000000000000 ) ) ;
#78 = VERTEX_POINT ( 'NONE', #174 ) ;
#79 = CIRCLE ( 'NONE', #184, 4.000000000000000000 ) ;
#80 = DIRECTION ( 'NONE',  ( -1.000000000000000000, 0.000000000000000000, 0.000000000000000000 ) ) ;
#81 = DIRECTION ( 'NONE',  ( 0.000000000000000000, 0.000000000000000000, 1.000000000000000000 ) ) ;
#82 = EDGE_CURVE ( 'NONE', #250, #78, #350, .T. ) ;
#83 = CARTESIAN_POINT ( 'NONE',  ( 0.000000000000000000, 0.000000000000000000, 5.500000000000000000 ) ) ;
#84 = PRODUCT_RELATED_PRODUCT_CATEGORY ( 'part', '', ( #334 ) ) ;
#85 = FACE_OUTER_BOUND ( 'NONE', #141, .T. ) ;
#86 = CIRCLE ( 'NONE', #305, 11.50000000000000000 ) ;
#87 = AXIS2_PLACEMENT_3D ( 'NONE', #310, #372, #379 ) ;
#88 = DIRECTION ( 'NONE',  ( 0.000000000000000000, 0.000000000000000000, 1.000000000000000000 ) ) ;
#89 = DIRECTION ( 'NONE',  ( 0.000000000000000000, 0.000000000000000000, 1.000000000000000000 ) ) ;
#90 = CARTESIAN_POINT ( 'NONE',  ( -4.000000000000000000, 0.000000000000000000, -7.500000000000000000 ) ) ;
#91 = DIRECTION ( 'NONE',  ( 1.000000000000000000, 0.000000000000000000, 0.000000000000000000 ) ) ;
#92 = ORIENTED_EDGE ( 'NONE', *, *, #58, .F. ) ;
#93 = DIRECTION ( 'NONE',  ( 0.000000000000000000, 0.000000000000000000, 1.000000000000000000 ) ) ;
#94 = SURFACE_SIDE_STYLE ('',( #62 ) ) ;
#95 = EDGE_CURVE ( 'NONE', #362, #164, #17, .T. ) ;
#96 = PLANE ( 'NONE',  #8 ) ;
#97 = VERTEX_POINT ( 'NONE', #90 ) ;
#98 = DIRECTION ( 'NONE',  ( -0.000000000000000000, -0.000000000000000000, -1.000000000000000000 ) ) ;
#99 = ORIENTED_EDGE ( 'NONE', *, *, #120, .T. ) ;
#100 = CARTESIAN_POINT ( 'NONE',  ( 0.000000000000000000, 0.000000000000000000, 7.500000000000000000 ) ) ;
#101 = AXIS2_PLACEMENT_3D ( 'NONE', #47, #335, #116 ) ;
#102 = ORIENTED_EDGE ( 'NONE', *, *, #319, .T. ) ;
#103 = SURFACE_STYLE_USAGE ( .BOTH. , #94 ) ;
#104 =( NAMED_UNIT ( * ) PLANE_ANGLE_UNIT ( ) SI_UNIT ( $, .RADIAN. ) );
#105 = VERTEX_POINT ( 'NONE', #395 ) ;
#106 = LINE ( 'NONE', #296, #233 ) ;
#107 = AXIS2_PLACEMENT_3D ( 'NONE', #114, #26, #271 ) ;
#108 = EDGE_CURVE ( 'NONE', #340, #264, #169, .T. ) ;
#109 = DIRECTION ( 'NONE',  ( -0.000000000000000000, -0.000000000000000000, -1.000000000000000000 ) ) ;
#110 = ORIENTED_EDGE ( 'NONE', *, *, #162, .T. ) ;
#111 = EDGE_CURVE ( 'NONE', #164, #362, #279, .T. ) ;
#112 = PRODUCT_RELATED_PRODUCT_CATEGORY ( 'part', '', ( #356 ) ) ;
#113 = ORIENTED_EDGE ( 'NONE', *, *, #146, .T. ) ;
#114 = CARTESIAN_POINT ( 'NONE',  ( 0.000000000000000000, 0.000000000000000000, -5.500000000000000000 ) ) ;
#115 = CONTEXT_DEPENDENT_SHAPE_REPRESENTATION ( #138, #328 ) ;
#116 = DIRECTION ( 'NONE',  ( 1.000000000000000000, 0.000000000000000000, 0.000000000000000000 ) ) ;
#117 = CIRCLE ( 'NONE', #267, 11.50000000000000000 ) ;
#118 = DIRECTION ( 'NONE',  ( -0.000000000000000000, -0.000000000000000000, -1.000000000000000000 ) ) ;
#119 = ORIENTED_EDGE ( 'NONE', *, *, #251, .F. ) ;
#120 = EDGE_CURVE ( 'NONE', #234, #282, #199, .T. ) ;
#121 = DIRECTION ( 'NONE',  ( 1.000000000000000000, 0.000000000000000000, 0.000000000000000000 ) ) ;
#122 = DIRECTION ( 'NONE',  ( 1.000000000000000000, 0.000000000000000000, 0.000000000000000000 ) ) ;
#123 = ORIENTED_EDGE ( 'NONE', *, *, #303, .T. ) ;
#124 = CARTESIAN_POINT ( 'NONE',  ( 0.000000000000000000, 0.000000000000000000, 7.500000000000000000 ) ) ;
#125 = SHAPE_REPRESENTATION ( '\X2\04210431043e0440043a0430\X0\1', ( #192, #367 ), #213 ) ;
#126 = PRODUCT_DEFINITION_CONTEXT ( 'detailed design', #205, 'design' ) ;
#127 = FACE_BOUND ( 'NONE', #309, .T. ) ;
#128 = ORIENTED_EDGE ( 'NONE', *, *, #348, .T. ) ;
#129 = FACE_OUTER_BOUND ( 'NONE', #39, .T. ) ;
#130 = CIRCLE ( 'NONE', #357, 4.000000000000000000 ) ;
#131 = ORIENTED_EDGE ( 'NONE', *, *, #251, .T. ) ;
#132 = DIRECTION ( 'NONE',  ( -0.000000000000000000, -0.000000000000000000, 1.000000000000000000 ) ) ;
#133 = CARTESIAN_POINT ( 'NONE',  ( 0.000000000000000000, 0.000000000000000000, -7.500000000000000000 ) ) ;
#134 = PRODUCT_DEFINITION ( 'UNKNOWN', '', #359, #126 ) ;
#135 = CARTESIAN_POINT ( 'NONE',  ( 0.000000000000000000, 0.000000000000000000, 7.500000000000000000 ) ) ;
#136 = AXIS2_PLACEMENT_3D ( 'NONE', #275, #1, #336 ) ;
#137 = AXIS2_PLACEMENT_3D ( 'NONE', #163, #389, #259 ) ;
#138 =( REPRESENTATION_RELATIONSHIP ('NONE','NONE', #125, #51 ) REPRESENTATION_RELATIONSHIP_WITH_TRANSFORMATION ( #61 )SHAPE_REPRESENTATION_RELATIONSHIP( ) );
#139 = ORIENTED_EDGE ( 'NONE', *, *, #324, .T. ) ;
#140 = EDGE_CURVE ( 'NONE', #264, #234, #64, .T. ) ;
#141 = EDGE_LOOP ( 'NONE', ( #345, #373 ) ) ;
#142 = AXIS2_PLACEMENT_3D ( 'NONE', #170, #109, #291 ) ;
#143 = PRODUCT_CONTEXT ( 'NONE', #31, 'mechanical' ) ;
#144 = CARTESIAN_POINT ( 'NONE',  ( -11.50000000000000000, 0.000000000000000000, 7.500000000000000000 ) ) ;
#145 = CARTESIAN_POINT ( 'NONE',  ( 0.000000000000000000, 0.000000000000000000, -7.500000000000000000 ) ) ;
#146 = EDGE_CURVE ( 'NONE', #264, #340, #54, .T. ) ;
#147 = FACE_OUTER_BOUND ( 'NONE', #152, .T. ) ;
#148 = AXIS2_PLACEMENT_3D ( 'NONE', #178, #118, #241 ) ;
#149 = CARTESIAN_POINT ( 'NONE',  ( 11.50000000000000000, 1.408343819019456176E-15, 5.500000000000000000 ) ) ;
#150 = VERTEX_POINT ( 'NONE', #212 ) ;
#151 = CARTESIAN_POINT ( 'NONE',  ( 0.000000000000000000, 0.000000000000000000, -5.500000000000000000 ) ) ;
#152 = EDGE_LOOP ( 'NONE', ( #21, #128, #12, #76 ) ) ;
#153 = AXIS2_PLACEMENT_3D ( 'NONE', #29, #207, #302 ) ;
#154 = VECTOR ( 'NONE', #98, 1000.000000000000000 ) ;
#155 = CARTESIAN_POINT ( 'NONE',  ( -11.50000000000000000, 0.000000000000000000, 7.500000000000000000 ) ) ;
#156 = FACE_OUTER_BOUND ( 'NONE', #20, .T. ) ;
#157 = EDGE_LOOP ( 'NONE', ( #258, #45 ) ) ;
#158 = CARTESIAN_POINT ( 'NONE',  ( 0.000000000000000000, 0.000000000000000000, -5.500000000000000000 ) ) ;
#159 = DIRECTION ( 'NONE',  ( 1.000000000000000000, 0.000000000000000000, -0.000000000000000000 ) ) ;
#160 = AXIS2_PLACEMENT_3D ( 'NONE', #83, #204, #221 ) ;
#161 = ORIENTED_EDGE ( 'NONE', *, *, #2, .F. ) ;
#162 = EDGE_CURVE ( 'NONE', #315, #28, #311, .T. ) ;
#163 = CARTESIAN_POINT ( 'NONE',  ( 0.000000000000000000, 0.000000000000000000, 0.000000000000000000 ) ) ;
#164 = VERTEX_POINT ( 'NONE', #63 ) ;
#165 = DIRECTION ( 'NONE',  ( -0.000000000000000000, -0.000000000000000000, -1.000000000000000000 ) ) ;
#166 = CARTESIAN_POINT ( 'NONE',  ( -4.000000000000000000, 0.000000000000000000, 7.500000000000000000 ) ) ;
#167 = CARTESIAN_POINT ( 'NONE',  ( 0.000000000000000000, 0.000000000000000000, 0.000000000000000000 ) ) ;
#168 = ORIENTED_EDGE ( 'NONE', *, *, #140, .F. ) ;
#169 = CIRCLE ( 'NONE', #7, 9.199999999999999289 ) ;
#170 = CARTESIAN_POINT ( 'NONE',  ( 0.000000000000000000, 0.000000000000000000, 7.500000000000000000 ) ) ;
#171 = DIRECTION ( 'NONE',  ( -0.000000000000000000, -0.000000000000000000, -1.000000000000000000 ) ) ;
#172 = AXIS2_PLACEMENT_3D ( 'NONE', #133, #293, #353 ) ;
#173 = AXIS2_PLACEMENT_3D ( 'NONE', #325, #320, #80 ) ;
#174 = CARTESIAN_POINT ( 'NONE',  ( 11.50000000000000000, 1.408343819019456176E-15, -7.500000000000000000 ) ) ;
#175 = CYLINDRICAL_SURFACE ( 'NONE', #101, 9.199999999999999289 ) ;
#176 = CARTESIAN_POINT ( 'NONE',  ( 0.000000000000000000, 0.000000000000000000, 7.500000000000000000 ) ) ;
#177 = STYLED_ITEM ( 'NONE', ( #40 ), #246 ) ;
#178 = CARTESIAN_POINT ( 'NONE',  ( 0.000000000000000000, 0.000000000000000000, 7.500000000000000000 ) ) ;
#179 = UNCERTAINTY_MEASURE_WITH_UNIT (LENGTH_MEASURE( 1.000000000000000082E-05 ), #181, 'distance_accuracy_value', 'NONE');
#180 = FACE_BOUND ( 'NONE', #157, .T. ) ;
#181 =( LENGTH_UNIT ( ) NAMED_UNIT ( * ) SI_UNIT ( .MILLI., .METRE. ) );
#182 = EDGE_LOOP ( 'NONE', ( #14, #53, #321, #316 ) ) ;
#183 = CIRCLE ( 'NONE', #349, 4.000000000000000000 ) ;
#184 = AXIS2_PLACEMENT_3D ( 'NONE', #13, #339, #219 ) ;
#185 = FACE_OUTER_BOUND ( 'NONE', #388, .T. ) ;
#186 = ORIENTED_EDGE ( 'NONE', *, *, #222, .F. ) ;
#187 = ORIENTED_EDGE ( 'NONE', *, *, #82, .T. ) ;
#188 = DIRECTION ( 'NONE',  ( -0.000000000000000000, -0.000000000000000000, -1.000000000000000000 ) ) ;
#189 = EDGE_LOOP ( 'NONE', ( #70, #378 ) ) ;
#190 = ADVANCED_FACE ( 'NONE', ( #276 ), #175, .T. ) ;
#191 = SHAPE_REPRESENTATION_RELATIONSHIP ( 'NONE' , 'NONE' ,  #51, #317 ) ;
#192 = AXIS2_PLACEMENT_3D ( 'NONE', #361, #331, #236 ) ;
#193 = ORIENTED_EDGE ( 'NONE', *, *, #75, .F. ) ;
#194 = VERTEX_POINT ( 'NONE', #149 ) ;
#195 = ADVANCED_FACE ( 'NONE', ( #147 ), #4, .T. ) ;
#196 =( NAMED_UNIT ( * ) PLANE_ANGLE_UNIT ( ) SI_UNIT ( $, .RADIAN. ) );
#197 = ORIENTED_EDGE ( 'NONE', *, *, #162, .F. ) ;
#198 = CYLINDRICAL_SURFACE ( 'NONE', #142, 4.000000000000000000 ) ;
#199 = CIRCLE ( 'NONE', #153, 9.199999999999999289 ) ;
#200 = DIRECTION ( 'NONE',  ( 0.000000000000000000, 0.000000000000000000, 1.000000000000000000 ) ) ;
#201 = SHAPE_DEFINITION_REPRESENTATION ( #231, #51 ) ;
#202 = CYLINDRICAL_SURFACE ( 'NONE', #148, 4.000000000000000000 ) ;
#203 = SHAPE_DEFINITION_REPRESENTATION ( #22, #125 ) ;
#204 = DIRECTION ( 'NONE',  ( 0.000000000000000000, 0.000000000000000000, 1.000000000000000000 ) ) ;
#205 = APPLICATION_CONTEXT ( 'automotive_design' ) ;
#206 = AXIS2_PLACEMENT_3D ( 'NONE', #238, #32, #273 ) ;
#207 = DIRECTION ( 'NONE',  ( 0.000000000000000000, 0.000000000000000000, 1.000000000000000000 ) ) ;
#208 = APPLICATION_PROTOCOL_DEFINITION ( 'draft international standard', 'automotive_design', 1998, #205 ) ;
#209 = ADVANCED_FACE ( 'NONE', ( #66 ), #202, .F. ) ;
#210 = CARTESIAN_POINT ( 'NONE',  ( 0.000000000000000000, 0.000000000000000000, -7.500000000000000000 ) ) ;
#211 = ORIENTED_EDGE ( 'NONE', *, *, #235, .T. ) ;
#212 = CARTESIAN_POINT ( 'NONE',  ( 4.000000000000000000, 4.898587196589412829E-16, -7.500000000000000000 ) ) ;
#213 =( GEOMETRIC_REPRESENTATION_CONTEXT ( 3 ) GLOBAL_UNCERTAINTY_ASSIGNED_CONTEXT ( ( #283 ) ) GLOBAL_UNIT_ASSIGNED_CONTEXT ( ( #387, #196, #354 ) ) REPRESENTATION_CONTEXT ( 'NONE', 'WORKASPACE' ) );
#214 =( NAMED_UNIT ( * ) SI_UNIT ( $, .STERADIAN. ) SOLID_ANGLE_UNIT ( ) );
#215 = CARTESIAN_POINT ( 'NONE',  ( -11.50000000000000000, 0.000000000000000000, 7.500000000000000000 ) ) ;
#216 = EDGE_LOOP ( 'NONE', ( #193, #102, #36, #247 ) ) ;
#217 = CARTESIAN_POINT ( 'NONE',  ( 9.199999999999999289, 0.000000000000000000, -5.500000000000000000 ) ) ;
#218 = AXIS2_PLACEMENT_3D ( 'NONE', #27, #298, #307 ) ;
#219 = DIRECTION ( 'NONE',  ( 1.000000000000000000, 0.000000000000000000, 0.000000000000000000 ) ) ;
#220 = EDGE_LOOP ( 'NONE', ( #119, #161 ) ) ;
#221 = DIRECTION ( 'NONE',  ( 1.000000000000000000, 0.000000000000000000, 0.000000000000000000 ) ) ;
#222 = EDGE_CURVE ( 'NONE', #242, #105, #72, .T. ) ;
#223 = ORIENTED_EDGE ( 'NONE', *, *, #348, .F. ) ;
#224 = DIRECTION ( 'NONE',  ( 0.000000000000000000, 0.000000000000000000, 1.000000000000000000 ) ) ;
#225 = ORIENTED_EDGE ( 'NONE', *, *, #266, .T. ) ;
#226 = DIRECTION ( 'NONE',  ( 1.000000000000000000, 0.000000000000000000, 0.000000000000000000 ) ) ;
#227 = FACE_OUTER_BOUND ( 'NONE', #220, .T. ) ;
#228 = CARTESIAN_POINT ( 'NONE',  ( 4.000000000000000000, 4.898587196589412829E-16, 7.500000000000000000 ) ) ;
#229 = DIRECTION ( 'NONE',  ( 0.000000000000000000, 0.000000000000000000, 1.000000000000000000 ) ) ;
#230 = CARTESIAN_POINT ( 'NONE',  ( 996.7489301358025386, 1006.409766940549389, 996.8423446063967504 ) ) ;
#231 = PRODUCT_DEFINITION_SHAPE ( 'NONE', 'NONE',  #383 ) ;
#232 = DIRECTION ( 'NONE',  ( 1.000000000000000000, 0.000000000000000000, -0.000000000000000000 ) ) ;
#233 = VECTOR ( 'NONE', #295, 1000.000000000000000 ) ;
#234 = VERTEX_POINT ( 'NONE', #5 ) ;
#235 = EDGE_CURVE ( 'NONE', #78, #250, #86, .T. ) ;
#236 = DIRECTION ( 'NONE',  ( 1.000000000000000000, 0.000000000000000000, 0.000000000000000000 ) ) ;
#237 = DIRECTION ( 'NONE',  ( 1.000000000000000000, 0.000000000000000000, 0.000000000000000000 ) ) ;
#238 = CARTESIAN_POINT ( 'NONE',  ( 0.000000000000000000, 0.000000000000000000, 7.500000000000000000 ) ) ;
#239 = VECTOR ( 'NONE', #360, 1000.000000000000000 ) ;
#240 = EDGE_CURVE ( 'NONE', #150, #97, #130, .T. ) ;
#241 = DIRECTION ( 'NONE',  ( -1.000000000000000000, 0.000000000000000000, 0.000000000000000000 ) ) ;
#242 = VERTEX_POINT ( 'NONE', #144 ) ;
#243 = CARTESIAN_POINT ( 'NONE',  ( 4.000000000000000000, 4.898587196589412829E-16, 7.500000000000000000 ) ) ;
#244 = CARTESIAN_POINT ( 'NONE',  ( 0.000000000000000000, 0.000000000000000000, -7.500000000000000000 ) ) ;
#245 = AXIS2_PLACEMENT_3D ( 'NONE', #262, #265, #49 ) ;
#246 = MANIFOLD_SOLID_BREP ( '\X2\0412044b044004350437\X0\-\X2\0412044b0442044f043d04430442044c\X0\1', #25 ) ;
#247 = ORIENTED_EDGE ( 'NONE', *, *, #240, .F. ) ;
#248 = ORIENTED_EDGE ( 'NONE', *, *, #75, .T. ) ;
#249 = CARTESIAN_POINT ( 'NONE',  ( 11.50000000000000000, 1.408343819019456176E-15, 7.500000000000000000 ) ) ;
#250 = VERTEX_POINT ( 'NONE', #344 ) ;
#251 = EDGE_CURVE ( 'NONE', #16, #194, #386, .T. ) ;
#252 = AXIS2_PLACEMENT_3D ( 'NONE', #176, #368, #91 ) ;
#253 = AXIS2_PLACEMENT_3D ( 'NONE', #158, #44, #159 ) ;
#254 = UNCERTAINTY_MEASURE_WITH_UNIT (LENGTH_MEASURE( 1.000000000000000082E-05 ), #382, 'distance_accuracy_value', 'NONE');
#255 = CYLINDRICAL_SURFACE ( 'NONE', #173, 11.50000000000000000 ) ;
#256 = ORIENTED_EDGE ( 'NONE', *, *, #111, .F. ) ;
#257 = CARTESIAN_POINT ( 'NONE',  ( 0.000000000000000000, 0.000000000000000000, 7.500000000000000000 ) ) ;
#258 = ORIENTED_EDGE ( 'NONE', *, *, #108, .F. ) ;
#259 = DIRECTION ( 'NONE',  ( 1.000000000000000000, 0.000000000000000000, 0.000000000000000000 ) ) ;
#260 = FACE_OUTER_BOUND ( 'NONE', #216, .T. ) ;
#261 = AXIS2_PLACEMENT_3D ( 'NONE', #257, #165, #56 ) ;
#262 = CARTESIAN_POINT ( 'NONE',  ( 0.000000000000000000, 0.000000000000000000, 5.500000000000000000 ) ) ;
#263 = FACE_OUTER_BOUND ( 'NONE', #394, .T. ) ;
#264 = VERTEX_POINT ( 'NONE', #338 ) ;
#265 = DIRECTION ( 'NONE',  ( 0.000000000000000000, 0.000000000000000000, 1.000000000000000000 ) ) ;
#266 = EDGE_CURVE ( 'NONE', #282, #234, #288, .T. ) ;
#267 = AXIS2_PLACEMENT_3D ( 'NONE', #135, #200, #326 ) ;
#268 = APPLICATION_PROTOCOL_DEFINITION ( 'draft international standard', 'automotive_design', 1998, #270 ) ;
#269 = FILL_AREA_STYLE_COLOUR ( '', #287 ) ;
#270 = APPLICATION_CONTEXT ( 'automotive_design' ) ;
#271 = DIRECTION ( 'NONE',  ( 1.000000000000000000, 0.000000000000000000, 0.000000000000000000 ) ) ;
#272 = ORIENTED_EDGE ( 'NONE', *, *, #314, .T. ) ;
#273 = DIRECTION ( 'NONE',  ( 1.000000000000000000, 0.000000000000000000, 0.000000000000000000 ) ) ;
#274 = AXIS2_PLACEMENT_3D ( 'NONE', #332, #93, #237 ) ;
#275 = CARTESIAN_POINT ( 'NONE',  ( 0.000000000000000000, 0.000000000000000000, 7.500000000000000000 ) ) ;
#276 = FACE_OUTER_BOUND ( 'NONE', #182, .T. ) ;
#277 = CARTESIAN_POINT ( 'NONE',  ( 9.199999999999999289, 0.000000000000000000, 5.500000000000000000 ) ) ;
#278 = ORIENTED_EDGE ( 'NONE', *, *, #95, .F. ) ;
#279 = CIRCLE ( 'NONE', #107, 11.50000000000000000 ) ;
#280 = AXIS2_PLACEMENT_3D ( 'NONE', #289, #370, #122 ) ;
#281 = CARTESIAN_POINT ( 'NONE',  ( -4.000000000000000000, 0.000000000000000000, 7.500000000000000000 ) ) ;
#282 = VERTEX_POINT ( 'NONE', #277 ) ;
#283 = UNCERTAINTY_MEASURE_WITH_UNIT (LENGTH_MEASURE( 1.000000000000000082E-05 ), #387, 'distance_accuracy_value', 'NONE');
#284 = DIRECTION ( 'NONE',  ( 1.000000000000000000, 0.000000000000000000, -0.000000000000000000 ) ) ;
#285 = ORIENTED_EDGE ( 'NONE', *, *, #68, .T. ) ;
#286 = DIRECTION ( 'NONE',  ( -0.000000000000000000, -0.000000000000000000, -1.000000000000000000 ) ) ;
#287 = COLOUR_RGB ( '',0.7921568627450980005, 0.8196078431372548767, 0.9333333333333333481 ) ;
#288 = CIRCLE ( 'NONE', #87, 9.199999999999999289 ) ;
#289 = CARTESIAN_POINT ( 'NONE',  ( 0.000000000000000000, 0.000000000000000000, -5.500000000000000000 ) ) ;
#290 = ORIENTED_EDGE ( 'NONE', *, *, #111, .T. ) ;
#291 = DIRECTION ( 'NONE',  ( -1.000000000000000000, 0.000000000000000000, 0.000000000000000000 ) ) ;
#292 = ADVANCED_FACE ( 'NONE', ( #156, #127 ), #96, .T. ) ;
#293 = DIRECTION ( 'NONE',  ( 0.000000000000000000, 0.000000000000000000, 1.000000000000000000 ) ) ;
#294 = AXIS2_PLACEMENT_3D ( 'NONE', #145, #300, #366 ) ;
#295 = DIRECTION ( 'NONE',  ( -0.000000000000000000, -0.000000000000000000, -1.000000000000000000 ) ) ;
#296 = CARTESIAN_POINT ( 'NONE',  ( 11.50000000000000000, 1.408343819019456176E-15, 7.500000000000000000 ) ) ;
#297 = DIRECTION ( 'NONE',  ( 1.000000000000000000, 0.000000000000000000, 0.000000000000000000 ) ) ;
#298 = DIRECTION ( 'NONE',  ( 0.000000000000000000, 0.000000000000000000, 1.000000000000000000 ) ) ;
#299 =( GEOMETRIC_REPRESENTATION_CONTEXT ( 3 ) GLOBAL_UNCERTAINTY_ASSIGNED_CONTEXT ( ( #254 ) ) GLOBAL_UNIT_ASSIGNED_CONTEXT ( ( #382, #104, #48 ) ) REPRESENTATION_CONTEXT ( 'NONE', 'WORKASPACE' ) );
#300 = DIRECTION ( 'NONE',  ( 0.000000000000000000, 0.000000000000000000, 1.000000000000000000 ) ) ;
#301 = ORIENTED_EDGE ( 'NONE', *, *, #120, .F. ) ;
#302 = DIRECTION ( 'NONE',  ( 1.000000000000000000, 0.000000000000000000, 0.000000000000000000 ) ) ;
#303 = EDGE_CURVE ( 'NONE', #362, #250, #6, .T. ) ;
#304 = DIRECTION ( 'NONE',  ( 0.000000000000000000, 0.000000000000000000, 1.000000000000000000 ) ) ;
#305 = AXIS2_PLACEMENT_3D ( 'NONE', #210, #89, #121 ) ;
#306 = PRODUCT_CONTEXT ( 'NONE', #270, 'mechanical' ) ;
#307 = DIRECTION ( 'NONE',  ( 1.000000000000000000, 0.000000000000000000, 0.000000000000000000 ) ) ;
#308 = CYLINDRICAL_SURFACE ( 'NONE', #280, 9.199999999999999289 ) ;
#309 = EDGE_LOOP ( 'NONE', ( #197, #30 ) ) ;
#310 = CARTESIAN_POINT ( 'NONE',  ( 0.000000000000000000, 0.000000000000000000, 5.500000000000000000 ) ) ;
#311 = CIRCLE ( 'NONE', #206, 4.000000000000000000 ) ;
#312 = AXIS2_PLACEMENT_3D ( 'NONE', #167, #224, #77 ) ;
#313 = CYLINDRICAL_SURFACE ( 'NONE', #38, 11.50000000000000000 ) ;
#314 = EDGE_CURVE ( 'NONE', #242, #16, #318, .T. ) ;
#315 = VERTEX_POINT ( 'NONE', #281 ) ;
#316 = ORIENTED_EDGE ( 'NONE', *, *, #324, .F. ) ;
#317 = ADVANCED_BREP_SHAPE_REPRESENTATION ( '', ( #246, #312 ), #299 ) ;
#318 = LINE ( 'NONE', #215, #154 ) ;
#319 = EDGE_CURVE ( 'NONE', #28, #315, #79, .T. ) ;
#320 = DIRECTION ( 'NONE',  ( -0.000000000000000000, -0.000000000000000000, -1.000000000000000000 ) ) ;
#321 = ORIENTED_EDGE ( 'NONE', *, *, #266, .F. ) ;
#322 = ORIENTED_EDGE ( 'NONE', *, *, #95, .T. ) ;
#323 = FACE_BOUND ( 'NONE', #189, .T. ) ;
#324 = EDGE_CURVE ( 'NONE', #340, #282, #67, .T. ) ;
#325 = CARTESIAN_POINT ( 'NONE',  ( 0.000000000000000000, 0.000000000000000000, 7.500000000000000000 ) ) ;
#326 = DIRECTION ( 'NONE',  ( 1.000000000000000000, 0.000000000000000000, 0.000000000000000000 ) ) ;
#327 = CARTESIAN_POINT ( 'NONE',  ( -9.199999999999999289, 1.126675055215564822E-15, -5.500000000000000000 ) ) ;
#328 = PRODUCT_DEFINITION_SHAPE ( 'NONE', 'NONE',  #396 ) ;
#329 = FILL_AREA_STYLE ('',( #269 ) ) ;
#330 =( GEOMETRIC_REPRESENTATION_CONTEXT ( 3 ) GLOBAL_UNCERTAINTY_ASSIGNED_CONTEXT ( ( #179 ) ) GLOBAL_UNIT_ASSIGNED_CONTEXT ( ( #181, #374, #214 ) ) REPRESENTATION_CONTEXT ( 'NONE', 'WORKASPACE' ) );
#331 = DIRECTION ( 'NONE',  ( 0.000000000000000000, 0.000000000000000000, 1.000000000000000000 ) ) ;
#332 = CARTESIAN_POINT ( 'NONE',  ( 0.000000000000000000, 0.000000000000000000, -5.500000000000000000 ) ) ;
#333 = ORIENTED_EDGE ( 'NONE', *, *, #303, .F. ) ;
#334 = PRODUCT ( '\X2\04210431043e0440043a0430\X0\1', '\X2\04210431043e0440043a0430\X0\1', '', ( #143 ) ) ;
#335 = DIRECTION ( 'NONE',  ( -0.000000000000000000, -0.000000000000000000, 1.000000000000000000 ) ) ;
#336 = DIRECTION ( 'NONE',  ( -1.000000000000000000, 0.000000000000000000, 0.000000000000000000 ) ) ;
#337 = ADVANCED_FACE ( 'NONE', ( #180, #69 ), #346, .T. ) ;
#338 = CARTESIAN_POINT ( 'NONE',  ( -9.199999999999999289, 1.126675055215564822E-15, -5.500000000000000000 ) ) ;
#339 = DIRECTION ( 'NONE',  ( 0.000000000000000000, 0.000000000000000000, 1.000000000000000000 ) ) ;
#340 = VERTEX_POINT ( 'NONE', #217 ) ;
#341 = DIRECTION ( 'NONE',  ( -0.000000000000000000, -0.000000000000000000, -1.000000000000000000 ) ) ;
#342 = EDGE_LOOP ( 'NONE', ( #322, #290 ) ) ;
#343 = MECHANICAL_DESIGN_GEOMETRIC_PRESENTATION_REPRESENTATION (  '', ( #177 ), #330 ) ;
#344 = CARTESIAN_POINT ( 'NONE',  ( -11.50000000000000000, 0.000000000000000000, -7.500000000000000000 ) ) ;
#345 = ORIENTED_EDGE ( 'NONE', *, *, #82, .F. ) ;
#346 = PLANE ( 'NONE',  #253 ) ;
#347 = CYLINDRICAL_SURFACE ( 'NONE', #261, 11.50000000000000000 ) ;
#348 = EDGE_CURVE ( 'NONE', #105, #194, #74, .T. ) ;
#349 = AXIS2_PLACEMENT_3D ( 'NONE', #384, #229, #297 ) ;
#350 = CIRCLE ( 'NONE', #294, 11.50000000000000000 ) ;
#351 = CARTESIAN_POINT ( 'NONE',  ( 0.000000000000000000, 0.000000000000000000, 5.500000000000000000 ) ) ;
#352 = APPLICATION_CONTEXT ( 'automotive_design' ) ;
#353 = DIRECTION ( 'NONE',  ( 1.000000000000000000, 0.000000000000000000, -0.000000000000000000 ) ) ;
#354 =( NAMED_UNIT ( * ) SI_UNIT ( $, .STERADIAN. ) SOLID_ANGLE_UNIT ( ) );
#355 = ORIENTED_EDGE ( 'NONE', *, *, #43, .T. ) ;
#356 = PRODUCT ( 'B640 \X2\041d04300442044f0436043d043e0439\X0\ \X2\0430043b044e043c0438043d043804350432044b0439\X0\ \X2\0440043e043b0438043a\X0\ HTD3M, \X2\043f043e0434\X0\ \X2\04320430043b\X0\ 8\X2\043c043c\X0\', 'B640 \X2\041d04300442044f0436043d043e0439\X0\ \X2\0430043b044e043c0438043d043804350432044b0439\X0\ \X2\0440043e043b0438043a\X0\ HTD3M, \X2\043f043e0434\X0\ \X2\04320430043b\X0\ 8\X2\043c043c\X0\', '', ( #306 ) ) ;
#357 = AXIS2_PLACEMENT_3D ( 'NONE', #244, #88, #59 ) ;
#358 = DIRECTION ( 'NONE',  ( 0.000000000000000000, 0.000000000000000000, 1.000000000000000000 ) ) ;
#359 = PRODUCT_DEFINITION_FORMATION_WITH_SPECIFIED_SOURCE ( 'ANY', '', #334, .NOT_KNOWN. ) ;
#360 = DIRECTION ( 'NONE',  ( -0.000000000000000000, -0.000000000000000000, -1.000000000000000000 ) ) ;
#361 = CARTESIAN_POINT ( 'NONE',  ( 0.000000000000000000, 0.000000000000000000, 0.000000000000000000 ) ) ;
#362 = VERTEX_POINT ( 'NONE', #71 ) ;
#363 = DIRECTION ( 'NONE',  ( -0.000000000000000000, -0.000000000000000000, 1.000000000000000000 ) ) ;
#364 = ADVANCED_FACE ( 'NONE', ( #377 ), #308, .T. ) ;
#365 = VECTOR ( 'NONE', #171, 1000.000000000000000 ) ;
#366 = DIRECTION ( 'NONE',  ( 1.000000000000000000, 0.000000000000000000, 0.000000000000000000 ) ) ;
#367 = AXIS2_PLACEMENT_3D ( 'NONE', #230, #358, #226 ) ;
#368 = DIRECTION ( 'NONE',  ( 0.000000000000000000, 0.000000000000000000, 1.000000000000000000 ) ) ;
#369 = ADVANCED_FACE ( 'NONE', ( #185 ), #313, .T. ) ;
#370 = DIRECTION ( 'NONE',  ( -0.000000000000000000, -0.000000000000000000, 1.000000000000000000 ) ) ;
#371 = VECTOR ( 'NONE', #341, 1000.000000000000000 ) ;
#372 = DIRECTION ( 'NONE',  ( 0.000000000000000000, 0.000000000000000000, 1.000000000000000000 ) ) ;
#373 = ORIENTED_EDGE ( 'NONE', *, *, #235, .F. ) ;
#374 =( NAMED_UNIT ( * ) PLANE_ANGLE_UNIT ( ) SI_UNIT ( $, .RADIAN. ) );
#375 = ADVANCED_FACE ( 'NONE', ( #129 ), #255, .T. ) ;
#376 = PRODUCT_DEFINITION_CONTEXT ( 'detailed design', #352, 'design' ) ;
#377 = FACE_OUTER_BOUND ( 'NONE', #35, .T. ) ;
#378 = ORIENTED_EDGE ( 'NONE', *, *, #240, .T. ) ;
#379 = DIRECTION ( 'NONE',  ( 1.000000000000000000, 0.000000000000000000, 0.000000000000000000 ) ) ;
#380 = ORIENTED_EDGE ( 'NONE', *, *, #24, .F. ) ;
#381 = ADVANCED_FACE ( 'NONE', ( #263 ), #347, .T. ) ;
#382 =( LENGTH_UNIT ( ) NAMED_UNIT ( * ) SI_UNIT ( .MILLI., .METRE. ) );
#383 = PRODUCT_DEFINITION ( 'UNKNOWN', '', #73, #376 ) ;
#384 = CARTESIAN_POINT ( 'NONE',  ( 0.000000000000000000, 0.000000000000000000, -7.500000000000000000 ) ) ;
#385 = VECTOR ( 'NONE', #363, 1000.000000000000000 ) ;
#386 = CIRCLE ( 'NONE', #160, 11.50000000000000000 ) ;
#387 =( LENGTH_UNIT ( ) NAMED_UNIT ( * ) SI_UNIT ( .MILLI., .METRE. ) );
#388 = EDGE_LOOP ( 'NONE', ( #223, #186, #272, #131 ) ) ;
#389 = DIRECTION ( 'NONE',  ( 0.000000000000000000, 0.000000000000000000, 1.000000000000000000 ) ) ;
#390 = PLANE ( 'NONE',  #46 ) ;
#391 = CIRCLE ( 'NONE', #245, 11.50000000000000000 ) ;
#392 = APPLICATION_PROTOCOL_DEFINITION ( 'draft international standard', 'automotive_design', 1998, #352 ) ;
#393 = VECTOR ( 'NONE', #188, 1000.000000000000000 ) ;
#394 = EDGE_LOOP ( 'NONE', ( #41, #278, #123, #187 ) ) ;
#395 = CARTESIAN_POINT ( 'NONE',  ( 11.50000000000000000, 1.408343819019456176E-15, 7.500000000000000000 ) ) ;
#396 = NEXT_ASSEMBLY_USAGE_OCCURRENCE ( 'NAUO1', ' ', ' ', #134, #383, $ ) ;
ENDSEC;
END-ISO-10303-21;
