ISO-10303-21;
HEADER;
FILE_DESCRIPTION (( 'STEP AP214' ),
    '1' );
FILE_NAME ('Ñáîðêà1.STEP',
    '2025-06-23T08:44:24',
    ( '' ),
    ( '' ),
    'SwSTEP 2.0',
    'SolidWorks 2025',
    '' );
FILE_SCHEMA (( 'AUTOMOTIVE_DESIGN' ));
ENDSEC;

DATA;
#1 = ORIENTED_EDGE ( 'NONE', *, *, #33, .F. ) ;
#2 = PRESENTATION_STYLE_ASSIGNMENT (( #261 ) ) ;
#3 = ORIENTED_EDGE ( 'NONE', *, *, #311, .T. ) ;
#4 = VECTOR ( 'NONE', #212, 1000.000000000000000 ) ;
#5 = PRODUCT_DEFINITION_FORMATION_WITH_SPECIFIED_SOURCE ( 'ANY', '', #367, .NOT_KNOWN. ) ;
#6 =( LENGTH_UNIT ( ) NAMED_UNIT ( * ) SI_UNIT ( .MILLI., .METRE. ) );
#7 = DIRECTION ( 'NONE',  ( 0.000000000000000000, 0.000000000000000000, 1.000000000000000000 ) ) ;
#8 = LINE ( 'NONE', #324, #313 ) ;
#9 = LINE ( 'NONE', #180, #203 ) ;
#10 = EDGE_CURVE ( 'NONE', #114, #370, #286, .T. ) ;
#11 = FACE_OUTER_BOUND ( 'NONE', #117, .T. ) ;
#12 = COLOUR_RGB ( '',0.8666666666666666963, 0.9098039215686274384, 1.000000000000000000 ) ;
#13 = AXIS2_PLACEMENT_3D ( 'NONE', #359, #244, #159 ) ;
#14 = DIRECTION ( 'NONE',  ( -1.000000000000000000, -0.000000000000000000, -0.000000000000000000 ) ) ;
#15 = PLANE ( 'NONE',  #199 ) ;
#16 = APPLICATION_PROTOCOL_DEFINITION ( 'draft international standard', 'automotive_design', 1998, #97 ) ;
#17 =( LENGTH_UNIT ( ) NAMED_UNIT ( * ) SI_UNIT ( .MILLI., .METRE. ) );
#18 = EDGE_CURVE ( 'NONE', #62, #61, #69, .T. ) ;
#19 = VECTOR ( 'NONE', #145, 1000.000000000000000 ) ;
#20 = DIRECTION ( 'NONE',  ( 0.000000000000000000, -0.000000000000000000, -1.000000000000000000 ) ) ;
#21 = FILL_AREA_STYLE_COLOUR ( '', #257 ) ;
#22 = DIRECTION ( 'NONE',  ( 0.000000000000000000, -1.000000000000000000, 0.000000000000000000 ) ) ;
#23 = EDGE_CURVE ( 'NONE', #34, #233, #237, .T. ) ;
#24 = PRODUCT_DEFINITION_SHAPE ( 'NONE', 'NONE',  #316 ) ;
#25 = DIRECTION ( 'NONE',  ( 0.000000000000000000, 0.000000000000000000, -1.000000000000000000 ) ) ;
#26 = CARTESIAN_POINT ( 'NONE',  ( 8.000000000000010658, 18.00000000000000355, 1000.000000000000000 ) ) ;
#27 = ORIENTED_EDGE ( 'NONE', *, *, #291, .T. ) ;
#28 = EDGE_CURVE ( 'NONE', #206, #62, #325, .T. ) ;
#29 = ORIENTED_EDGE ( 'NONE', *, *, #41, .T. ) ;
#30 = AXIS2_PLACEMENT_3D ( 'NONE', #220, #22, #247 ) ;
#31 = CARTESIAN_POINT ( 'NONE',  ( -8.000000000000000000, -18.00000000000000355, 1000.000000000000000 ) ) ;
#32 = ORIENTED_EDGE ( 'NONE', *, *, #75, .T. ) ;
#33 = EDGE_CURVE ( 'NONE', #281, #231, #270, .T. ) ;
#34 = VERTEX_POINT ( 'NONE', #352 ) ;
#35 = PLANE ( 'NONE',  #99 ) ;
#36 = CARTESIAN_POINT ( 'NONE',  ( 10.00000000000000000, 20.00000000000000000, 1000.000000000000000 ) ) ;
#37 = VECTOR ( 'NONE', #66, 1000.000000000000000 ) ;
#38 = FACE_OUTER_BOUND ( 'NONE', #368, .T. ) ;
#39 = CARTESIAN_POINT ( 'NONE',  ( -10.00000000000000000, -20.00000000000000000, 0.000000000000000000 ) ) ;
#40 = DIRECTION ( 'NONE',  ( -0.000000000000000000, -0.000000000000000000, -1.000000000000000000 ) ) ;
#41 = EDGE_CURVE ( 'NONE', #258, #370, #129, .T. ) ;
#42 = LINE ( 'NONE', #241, #54 ) ;
#43 = UNCERTAINTY_MEASURE_WITH_UNIT (LENGTH_MEASURE( 1.000000000000000082E-05 ), #17, 'distance_accuracy_value', 'NONE');
#44 = SHAPE_REPRESENTATION_RELATIONSHIP ( 'NONE' , 'NONE' ,  #373, #56 ) ;
#45 = LINE ( 'NONE', #39, #371 ) ;
#46 = CARTESIAN_POINT ( 'NONE',  ( 0.000000000000000000, 0.000000000000000000, 0.000000000000000000 ) ) ;
#47 =( LENGTH_UNIT ( ) NAMED_UNIT ( * ) SI_UNIT ( .MILLI., .METRE. ) );
#48 = DIRECTION ( 'NONE',  ( -1.000000000000000000, 0.000000000000000000, -0.000000000000000000 ) ) ;
#49 =( NAMED_UNIT ( * ) SI_UNIT ( $, .STERADIAN. ) SOLID_ANGLE_UNIT ( ) );
#50 = CARTESIAN_POINT ( 'NONE',  ( -8.000000000000000000, -18.00000000000000355, 1000.000000000000000 ) ) ;
#51 = EDGE_CURVE ( 'NONE', #262, #226, #42, .T. ) ;
#52 = FACE_BOUND ( 'NONE', #294, .T. ) ;
#53 = FILL_AREA_STYLE ('',( #21 ) ) ;
#54 = VECTOR ( 'NONE', #96, 1000.000000000000000 ) ;
#55 =( GEOMETRIC_REPRESENTATION_CONTEXT ( 3 ) GLOBAL_UNCERTAINTY_ASSIGNED_CONTEXT ( ( #321 ) ) GLOBAL_UNIT_ASSIGNED_CONTEXT ( ( #47, #274, #49 ) ) REPRESENTATION_CONTEXT ( 'NONE', 'WORKASPACE' ) );
#56 = ADVANCED_BREP_SHAPE_REPRESENTATION ( '', ( #252, #366 ), #73 ) ;
#57 = ORIENTED_EDGE ( 'NONE', *, *, #33, .T. ) ;
#58 = PRODUCT_RELATED_PRODUCT_CATEGORY ( 'part', '', ( #367 ) ) ;
#59 = ORIENTED_EDGE ( 'NONE', *, *, #75, .F. ) ;
#60 = DIRECTION ( 'NONE',  ( 0.000000000000000000, 1.000000000000000000, 0.000000000000000000 ) ) ;
#61 = VERTEX_POINT ( 'NONE', #354 ) ;
#62 = VERTEX_POINT ( 'NONE', #187 ) ;
#63 = DIRECTION ( 'NONE',  ( 1.000000000000000000, 0.000000000000000000, 0.000000000000000000 ) ) ;
#64 = DIRECTION ( 'NONE',  ( -0.000000000000000000, -0.000000000000000000, -1.000000000000000000 ) ) ;
#65 = LINE ( 'NONE', #149, #182 ) ;
#66 = DIRECTION ( 'NONE',  ( -0.000000000000000000, -0.000000000000000000, -1.000000000000000000 ) ) ;
#67 = AXIS2_PLACEMENT_3D ( 'NONE', #277, #280, #20 ) ;
#68 = CARTESIAN_POINT ( 'NONE',  ( 0.000000000000000000, 0.000000000000000000, 0.000000000000000000 ) ) ;
#69 = LINE ( 'NONE', #186, #167 ) ;
#70 = ADVANCED_FACE ( 'NONE', ( #214, #304 ), #301, .F. ) ;
#71 = PLANE ( 'NONE',  #331 ) ;
#72 = LINE ( 'NONE', #36, #360 ) ;
#73 =( GEOMETRIC_REPRESENTATION_CONTEXT ( 3 ) GLOBAL_UNCERTAINTY_ASSIGNED_CONTEXT ( ( #92 ) ) GLOBAL_UNIT_ASSIGNED_CONTEXT ( ( #118, #207, #259 ) ) REPRESENTATION_CONTEXT ( 'NONE', 'WORKASPACE' ) );
#74 = SHAPE_DEFINITION_REPRESENTATION ( #116, #221 ) ;
#75 = EDGE_CURVE ( 'NONE', #233, #171, #216, .T. ) ;
#76 = LINE ( 'NONE', #107, #278 ) ;
#77 = ITEM_DEFINED_TRANSFORMATION ( 'NONE', 'NONE', #13,  #366 ) ;
#78 = ORIENTED_EDGE ( 'NONE', *, *, #218, .F. ) ;
#79 = PRODUCT_DEFINITION ( 'UNKNOWN', '', #168, #263 ) ;
#80 = CARTESIAN_POINT ( 'NONE',  ( -10.00000000000000000, -20.00000000000000000, 1000.000000000000000 ) ) ;
#81 = PRODUCT ( '\X2\04210431043e0440043a0430\X0\1', '\X2\04210431043e0440043a0430\X0\1', '', ( #242 ) ) ;
#82 = CARTESIAN_POINT ( 'NONE',  ( -10.00000000000000000, 20.00000000000000000, 1000.000000000000000 ) ) ;
#83 = APPLICATION_CONTEXT ( 'automotive_design' ) ;
#84 = ORIENTED_EDGE ( 'NONE', *, *, #162, .T. ) ;
#85 = MECHANICAL_DESIGN_GEOMETRIC_PRESENTATION_REPRESENTATION (  '', ( #327 ), #310 ) ;
#86 = EDGE_LOOP ( 'NONE', ( #200, #202, #177, #204 ) ) ;
#87 = EDGE_LOOP ( 'NONE', ( #59, #283, #27, #140 ) ) ;
#88 =( REPRESENTATION_RELATIONSHIP ('NONE','NONE', #221, #373 ) REPRESENTATION_RELATIONSHIP_WITH_TRANSFORMATION ( #77 )SHAPE_REPRESENTATION_RELATIONSHIP( ) );
#89 = ORIENTED_EDGE ( 'NONE', *, *, #10, .F. ) ;
#90 = PRODUCT_RELATED_PRODUCT_CATEGORY ( 'part', '', ( #81 ) ) ;
#91 = ORIENTED_EDGE ( 'NONE', *, *, #349, .T. ) ;
#92 = UNCERTAINTY_MEASURE_WITH_UNIT (LENGTH_MEASURE( 1.000000000000000082E-05 ), #118, 'distance_accuracy_value', 'NONE');
#93 = DIRECTION ( 'NONE',  ( 0.000000000000000000, 0.000000000000000000, -1.000000000000000000 ) ) ;
#94 = EDGE_LOOP ( 'NONE', ( #288, #347, #112, #84 ) ) ;
#95 = CARTESIAN_POINT ( 'NONE',  ( 8.000000000000010658, 18.00000000000000355, 0.000000000000000000 ) ) ;
#96 = DIRECTION ( 'NONE',  ( 1.000000000000000000, 0.000000000000000000, 0.000000000000000000 ) ) ;
#97 = APPLICATION_CONTEXT ( 'automotive_design' ) ;
#98 = LINE ( 'NONE', #243, #37 ) ;
#99 = AXIS2_PLACEMENT_3D ( 'NONE', #205, #295, #93 ) ;
#100 = DIRECTION ( 'NONE',  ( -1.000000000000000000, -0.000000000000000000, -0.000000000000000000 ) ) ;
#101 = APPLICATION_PROTOCOL_DEFINITION ( 'draft international standard', 'automotive_design', 1998, #284 ) ;
#102 = DIRECTION ( 'NONE',  ( 0.000000000000000000, 0.000000000000000000, -1.000000000000000000 ) ) ;
#103 = EDGE_CURVE ( 'NONE', #262, #171, #98, .T. ) ;
#104 = CARTESIAN_POINT ( 'NONE',  ( 0.000000000000000000, 0.000000000000000000, 1000.000000000000000 ) ) ;
#105 = VECTOR ( 'NONE', #40, 1000.000000000000000 ) ;
#106 = DIRECTION ( 'NONE',  ( -0.000000000000000000, -0.000000000000000000, -1.000000000000000000 ) ) ;
#107 = CARTESIAN_POINT ( 'NONE',  ( -8.000000000000000000, 18.00000000000000355, 1000.000000000000000 ) ) ;
#108 = CARTESIAN_POINT ( 'NONE',  ( 10.00000000000000000, 20.00000000000000000, 1000.000000000000000 ) ) ;
#109 = ADVANCED_FACE ( 'NONE', ( #11 ), #71, .T. ) ;
#110 = DIRECTION ( 'NONE',  ( 0.000000000000000000, 1.000000000000000000, 0.000000000000000000 ) ) ;
#111 = EDGE_CURVE ( 'NONE', #370, #233, #126, .T. ) ;
#112 = ORIENTED_EDGE ( 'NONE', *, *, #18, .F. ) ;
#113 = AXIS2_PLACEMENT_3D ( 'NONE', #46, #249, #48 ) ;
#114 = VERTEX_POINT ( 'NONE', #356 ) ;
#115 = CARTESIAN_POINT ( 'NONE',  ( 10.00000000000000000, -20.00000000000000000, 0.000000000000000000 ) ) ;
#116 = PRODUCT_DEFINITION_SHAPE ( 'NONE', 'NONE',  #79 ) ;
#117 = EDGE_LOOP ( 'NONE', ( #198, #314, #3, #318 ) ) ;
#118 =( LENGTH_UNIT ( ) NAMED_UNIT ( * ) SI_UNIT ( .MILLI., .METRE. ) );
#119 = ORIENTED_EDGE ( 'NONE', *, *, #125, .F. ) ;
#120 = FILL_AREA_STYLE_COLOUR ( '', #12 ) ;
#121 = ORIENTED_EDGE ( 'NONE', *, *, #291, .F. ) ;
#122 = PRODUCT_DEFINITION_CONTEXT ( 'detailed design', #157, 'design' ) ;
#123 = DIRECTION ( 'NONE',  ( 1.000000000000000000, 0.000000000000000000, 0.000000000000000000 ) ) ;
#124 = CARTESIAN_POINT ( 'NONE',  ( -10.00000000000000000, -20.00000000000000000, 0.000000000000000000 ) ) ;
#125 = EDGE_CURVE ( 'NONE', #292, #281, #72, .T. ) ;
#126 = LINE ( 'NONE', #299, #264 ) ;
#127 = LINE ( 'NONE', #130, #195 ) ;
#128 = DIRECTION ( 'NONE',  ( -0.000000000000000000, -1.000000000000000000, -0.000000000000000000 ) ) ;
#129 = LINE ( 'NONE', #238, #326 ) ;
#130 = CARTESIAN_POINT ( 'NONE',  ( -10.00000000000000000, -20.00000000000000000, 0.000000000000000000 ) ) ;
#131 = PRESENTATION_LAYER_ASSIGNMENT (  '', '', ( #239 ) ) ;
#132 = APPLICATION_PROTOCOL_DEFINITION ( 'draft international standard', 'automotive_design', 1998, #157 ) ;
#133 = CARTESIAN_POINT ( 'NONE',  ( 8.000000000000010658, -18.00000000000000355, 1000.000000000000000 ) ) ;
#134 = EDGE_CURVE ( 'NONE', #323, #315, #45, .T. ) ;
#135 = SURFACE_STYLE_USAGE ( .BOTH. , #308 ) ;
#136 = ORIENTED_EDGE ( 'NONE', *, *, #228, .T. ) ;
#137 = VECTOR ( 'NONE', #196, 1000.000000000000000 ) ;
#138 = ORIENTED_EDGE ( 'NONE', *, *, #111, .T. ) ;
#139 = ORIENTED_EDGE ( 'NONE', *, *, #162, .F. ) ;
#140 = ORIENTED_EDGE ( 'NONE', *, *, #103, .T. ) ;
#141 = ADVANCED_FACE ( 'NONE', ( #156 ), #15, .F. ) ;
#142 = VECTOR ( 'NONE', #369, 1000.000000000000000 ) ;
#143 = EDGE_LOOP ( 'NONE', ( #336, #139, #170, #256 ) ) ;
#144 = ORIENTED_EDGE ( 'NONE', *, *, #125, .T. ) ;
#145 = DIRECTION ( 'NONE',  ( -1.000000000000000000, -0.000000000000000000, -0.000000000000000000 ) ) ;
#146 = EDGE_LOOP ( 'NONE', ( #193, #255, #342, #309 ) ) ;
#147 = PLANE ( 'NONE',  #227 ) ;
#148 = CARTESIAN_POINT ( 'NONE',  ( -10.00000000000000000, -20.00000000000000000, 1000.000000000000000 ) ) ;
#149 = CARTESIAN_POINT ( 'NONE',  ( -8.000000000000000000, -18.00000000000000355, 0.000000000000000000 ) ) ;
#150 = DIRECTION ( 'NONE',  ( 0.000000000000000000, 1.000000000000000000, 0.000000000000000000 ) ) ;
#151 = DIRECTION ( 'NONE',  ( 1.000000000000000000, 0.000000000000000000, 0.000000000000000000 ) ) ;
#152 = CARTESIAN_POINT ( 'NONE',  ( 0.000000000000000000, 0.000000000000000000, 0.000000000000000000 ) ) ;
#153 = EDGE_CURVE ( 'NONE', #226, #258, #358, .T. ) ;
#154 = DIRECTION ( 'NONE',  ( -1.000000000000000000, 0.000000000000000000, -0.000000000000000000 ) ) ;
#155 = VECTOR ( 'NONE', #106, 1000.000000000000000 ) ;
#156 = FACE_OUTER_BOUND ( 'NONE', #94, .T. ) ;
#157 = APPLICATION_CONTEXT ( 'automotive_design' ) ;
#158 = DIRECTION ( 'NONE',  ( 1.000000000000000000, 0.000000000000000000, 0.000000000000000000 ) ) ;
#159 = DIRECTION ( 'NONE',  ( 1.000000000000000000, 0.000000000000000000, 0.000000000000000000 ) ) ;
#160 = FACE_OUTER_BOUND ( 'NONE', #341, .T. ) ;
#161 = MECHANICAL_DESIGN_GEOMETRIC_PRESENTATION_REPRESENTATION (  '', ( #239 ), #302 ) ;
#162 = EDGE_CURVE ( 'NONE', #62, #323, #9, .T. ) ;
#163 = FACE_OUTER_BOUND ( 'NONE', #320, .T. ) ;
#164 = ORIENTED_EDGE ( 'NONE', *, *, #172, .F. ) ;
#165 = CARTESIAN_POINT ( 'NONE',  ( 10.00000000000000000, 20.00000000000000000, 0.000000000000000000 ) ) ;
#166 = PLANE ( 'NONE',  #30 ) ;
#167 = VECTOR ( 'NONE', #123, 1000.000000000000000 ) ;
#168 = PRODUCT_DEFINITION_FORMATION_WITH_SPECIFIED_SOURCE ( 'ANY', '', #81, .NOT_KNOWN. ) ;
#169 = LINE ( 'NONE', #253, #353 ) ;
#170 = ORIENTED_EDGE ( 'NONE', *, *, #28, .F. ) ;
#171 = VERTEX_POINT ( 'NONE', #328 ) ;
#172 = EDGE_CURVE ( 'NONE', #206, #231, #265, .T. ) ;
#173 = DIRECTION ( 'NONE',  ( 0.000000000000000000, 0.000000000000000000, 1.000000000000000000 ) ) ;
#174 = PRESENTATION_LAYER_ASSIGNMENT (  '', '', ( #327 ) ) ;
#175 = ORIENTED_EDGE ( 'NONE', *, *, #355, .F. ) ;
#176 = SURFACE_SIDE_STYLE ('',( #266 ) ) ;
#177 = ORIENTED_EDGE ( 'NONE', *, *, #51, .T. ) ;
#178 = DIRECTION ( 'NONE',  ( 0.000000000000000000, -0.000000000000000000, 1.000000000000000000 ) ) ;
#179 = EDGE_CURVE ( 'NONE', #231, #323, #127, .T. ) ;
#180 = CARTESIAN_POINT ( 'NONE',  ( -10.00000000000000000, -20.00000000000000000, 1000.000000000000000 ) ) ;
#181 = CARTESIAN_POINT ( 'NONE',  ( -10.00000000000000000, 20.00000000000000000, 1000.000000000000000 ) ) ;
#182 = VECTOR ( 'NONE', #63, 1000.000000000000000 ) ;
#183 = DIRECTION ( 'NONE',  ( -1.000000000000000000, 0.000000000000000000, 0.000000000000000000 ) ) ;
#184 = CARTESIAN_POINT ( 'NONE',  ( -10.00000000000000000, 20.00000000000000000, 1000.000000000000000 ) ) ;
#185 = EDGE_CURVE ( 'NONE', #61, #315, #285, .T. ) ;
#186 = CARTESIAN_POINT ( 'NONE',  ( -10.00000000000000000, -20.00000000000000000, 1000.000000000000000 ) ) ;
#187 = CARTESIAN_POINT ( 'NONE',  ( -10.00000000000000000, -20.00000000000000000, 1000.000000000000000 ) ) ;
#188 = AXIS2_PLACEMENT_3D ( 'NONE', #317, #322, #345 ) ;
#189 = PRODUCT_CONTEXT ( 'NONE', #83, 'mechanical' ) ;
#190 = DIRECTION ( 'NONE',  ( 0.000000000000000000, 1.000000000000000000, 0.000000000000000000 ) ) ;
#191 = CONTEXT_DEPENDENT_SHAPE_REPRESENTATION ( #88, #339 ) ;
#192 =( NAMED_UNIT ( * ) PLANE_ANGLE_UNIT ( ) SI_UNIT ( $, .RADIAN. ) );
#193 = ORIENTED_EDGE ( 'NONE', *, *, #218, .T. ) ;
#194 = CARTESIAN_POINT ( 'NONE',  ( -8.000000000000000000, -18.00000000000000355, 1000.000000000000000 ) ) ;
#195 = VECTOR ( 'NONE', #251, 1000.000000000000000 ) ;
#196 = DIRECTION ( 'NONE',  ( -0.000000000000000000, -1.000000000000000000, -0.000000000000000000 ) ) ;
#197 = DIRECTION ( 'NONE',  ( -1.000000000000000000, -0.000000000000000000, -0.000000000000000000 ) ) ;
#198 = ORIENTED_EDGE ( 'NONE', *, *, #41, .F. ) ;
#199 = AXIS2_PLACEMENT_3D ( 'NONE', #148, #150, #245 ) ;
#200 = ORIENTED_EDGE ( 'NONE', *, *, #349, .F. ) ;
#201 = ORIENTED_EDGE ( 'NONE', *, *, #51, .F. ) ;
#202 = ORIENTED_EDGE ( 'NONE', *, *, #103, .F. ) ;
#203 = VECTOR ( 'NONE', #296, 1000.000000000000000 ) ;
#204 = ORIENTED_EDGE ( 'NONE', *, *, #153, .T. ) ;
#205 = CARTESIAN_POINT ( 'NONE',  ( -8.000000000000000000, -18.00000000000000355, 1000.000000000000000 ) ) ;
#206 = VERTEX_POINT ( 'NONE', #82 ) ;
#207 =( NAMED_UNIT ( * ) PLANE_ANGLE_UNIT ( ) SI_UNIT ( $, .RADIAN. ) );
#208 = CARTESIAN_POINT ( 'NONE',  ( -8.000000000000000000, 18.00000000000000355, 1000.000000000000000 ) ) ;
#209 = FACE_OUTER_BOUND ( 'NONE', #86, .T. ) ;
#210 = VECTOR ( 'NONE', #14, 1000.000000000000000 ) ;
#211 = DIRECTION ( 'NONE',  ( -0.000000000000000000, -1.000000000000000000, -0.000000000000000000 ) ) ;
#212 = DIRECTION ( 'NONE',  ( -0.000000000000000000, -0.000000000000000000, -1.000000000000000000 ) ) ;
#213 = DIRECTION ( 'NONE',  ( 0.000000000000000000, 0.000000000000000000, 1.000000000000000000 ) ) ;
#214 = FACE_OUTER_BOUND ( 'NONE', #146, .T. ) ;
#215 = DIRECTION ( 'NONE',  ( 1.000000000000000000, 0.000000000000000000, 0.000000000000000000 ) ) ;
#216 = LINE ( 'NONE', #273, #217 ) ;
#217 = VECTOR ( 'NONE', #128, 1000.000000000000000 ) ;
#218 = EDGE_CURVE ( 'NONE', #61, #292, #169, .T. ) ;
#219 = CARTESIAN_POINT ( 'NONE',  ( 10.00000000000000000, -20.00000000000000000, 1000.000000000000000 ) ) ;
#220 = CARTESIAN_POINT ( 'NONE',  ( -8.000000000000000000, 18.00000000000000355, 1000.000000000000000 ) ) ;
#221 = SHAPE_REPRESENTATION ( '\X2\04210431043e0440043a0430\X0\1', ( #337, #13 ), #55 ) ;
#222 = FACE_OUTER_BOUND ( 'NONE', #289, .T. ) ;
#223 = CLOSED_SHELL ( 'NONE', ( #70, #240, #340, #287, #269, #141, #225, #109, #246, #303 ) ) ;
#224 = EDGE_CURVE ( 'NONE', #315, #281, #362, .T. ) ;
#225 = ADVANCED_FACE ( 'NONE', ( #209 ), #147, .T. ) ;
#226 = VERTEX_POINT ( 'NONE', #133 ) ;
#227 = AXIS2_PLACEMENT_3D ( 'NONE', #31, #60, #178 ) ;
#228 = EDGE_CURVE ( 'NONE', #114, #34, #76, .T. ) ;
#229 = ORIENTED_EDGE ( 'NONE', *, *, #23, .T. ) ;
#230 = LINE ( 'NONE', #181, #19 ) ;
#231 = VERTEX_POINT ( 'NONE', #365 ) ;
#232 = DIRECTION ( 'NONE',  ( 0.000000000000000000, 1.000000000000000000, 0.000000000000000000 ) ) ;
#233 = VERTEX_POINT ( 'NONE', #361 ) ;
#234 = UNCERTAINTY_MEASURE_WITH_UNIT (LENGTH_MEASURE( 1.000000000000000082E-05 ), #6, 'distance_accuracy_value', 'NONE');
#235 =( NAMED_UNIT ( * ) PLANE_ANGLE_UNIT ( ) SI_UNIT ( $, .RADIAN. ) );
#236 = ORIENTED_EDGE ( 'NONE', *, *, #224, .T. ) ;
#237 = LINE ( 'NONE', #208, #4 ) ;
#238 = CARTESIAN_POINT ( 'NONE',  ( 8.000000000000010658, -18.00000000000000355, 0.000000000000000000 ) ) ;
#239 = STYLED_ITEM ( 'NONE', ( #335 ), #252 ) ;
#240 = ADVANCED_FACE ( 'NONE', ( #163, #52 ), #333, .T. ) ;
#241 = CARTESIAN_POINT ( 'NONE',  ( -8.000000000000000000, -18.00000000000000355, 1000.000000000000000 ) ) ;
#242 = PRODUCT_CONTEXT ( 'NONE', #284, 'mechanical' ) ;
#243 = CARTESIAN_POINT ( 'NONE',  ( -8.000000000000000000, -18.00000000000000355, 1000.000000000000000 ) ) ;
#244 = DIRECTION ( 'NONE',  ( 0.000000000000000000, 0.000000000000000000, 1.000000000000000000 ) ) ;
#245 = DIRECTION ( 'NONE',  ( 0.000000000000000000, -0.000000000000000000, 1.000000000000000000 ) ) ;
#246 = ADVANCED_FACE ( 'NONE', ( #222 ), #166, .T. ) ;
#247 = DIRECTION ( 'NONE',  ( 0.000000000000000000, -0.000000000000000000, -1.000000000000000000 ) ) ;
#248 = VECTOR ( 'NONE', #211, 1000.000000000000000 ) ;
#249 = DIRECTION ( 'NONE',  ( 0.000000000000000000, 0.000000000000000000, -1.000000000000000000 ) ) ;
#250 =( NAMED_UNIT ( * ) SI_UNIT ( $, .STERADIAN. ) SOLID_ANGLE_UNIT ( ) );
#251 = DIRECTION ( 'NONE',  ( -0.000000000000000000, -1.000000000000000000, -0.000000000000000000 ) ) ;
#252 = MANIFOLD_SOLID_BREP ( '\X2\0411043e0431044b0448043a0430\X0\-\X2\0412044b0442044f043d04430442044c\X0\1', #223 ) ;
#253 = CARTESIAN_POINT ( 'NONE',  ( 10.00000000000000000, -20.00000000000000000, 1000.000000000000000 ) ) ;
#254 = ORIENTED_EDGE ( 'NONE', *, *, #134, .F. ) ;
#255 = ORIENTED_EDGE ( 'NONE', *, *, #355, .T. ) ;
#256 = ORIENTED_EDGE ( 'NONE', *, *, #172, .T. ) ;
#257 = COLOUR_RGB ( '',0.8666666666666666963, 0.9098039215686274384, 1.000000000000000000 ) ;
#258 = VERTEX_POINT ( 'NONE', #305 ) ;
#259 =( NAMED_UNIT ( * ) SI_UNIT ( $, .STERADIAN. ) SOLID_ANGLE_UNIT ( ) );
#260 = EDGE_LOOP ( 'NONE', ( #201, #121, #344, #346 ) ) ;
#261 = SURFACE_STYLE_USAGE ( .BOTH. , #176 ) ;
#262 = VERTEX_POINT ( 'NONE', #194 ) ;
#263 = PRODUCT_DEFINITION_CONTEXT ( 'detailed design', #97, 'design' ) ;
#264 = VECTOR ( 'NONE', #100, 1000.000000000000000 ) ;
#265 = LINE ( 'NONE', #184, #105 ) ;
#266 = SURFACE_STYLE_FILL_AREA ( #297 ) ;
#267 = CARTESIAN_POINT ( 'NONE',  ( 8.000000000000010658, -18.00000000000000355, 1000.000000000000000 ) ) ;
#268 = DIRECTION ( 'NONE',  ( 1.000000000000000000, 0.000000000000000000, 0.000000000000000000 ) ) ;
#269 = ADVANCED_FACE ( 'NONE', ( #306 ), #312, .F. ) ;
#270 = LINE ( 'NONE', #329, #210 ) ;
#271 = VECTOR ( 'NONE', #64, 1000.000000000000000 ) ;
#272 = CARTESIAN_POINT ( 'NONE',  ( 8.000000000000010658, -18.00000000000000355, 1000.000000000000000 ) ) ;
#273 = CARTESIAN_POINT ( 'NONE',  ( -8.000000000000000000, -18.00000000000000355, 0.000000000000000000 ) ) ;
#274 =( NAMED_UNIT ( * ) PLANE_ANGLE_UNIT ( ) SI_UNIT ( $, .RADIAN. ) );
#275 = PLANE ( 'NONE',  #67 ) ;
#276 = APPLICATION_PROTOCOL_DEFINITION ( 'draft international standard', 'automotive_design', 1998, #83 ) ;
#277 = CARTESIAN_POINT ( 'NONE',  ( -10.00000000000000000, 20.00000000000000000, 1000.000000000000000 ) ) ;
#278 = VECTOR ( 'NONE', #197, 1000.000000000000000 ) ;
#279 = SHAPE_DEFINITION_REPRESENTATION ( #24, #373 ) ;
#280 = DIRECTION ( 'NONE',  ( 0.000000000000000000, -1.000000000000000000, 0.000000000000000000 ) ) ;
#281 = VERTEX_POINT ( 'NONE', #165 ) ;
#282 = FACE_OUTER_BOUND ( 'NONE', #87, .T. ) ;
#283 = ORIENTED_EDGE ( 'NONE', *, *, #23, .F. ) ;
#284 = APPLICATION_CONTEXT ( 'automotive_design' ) ;
#285 = LINE ( 'NONE', #219, #155 ) ;
#286 = LINE ( 'NONE', #26, #142 ) ;
#287 = ADVANCED_FACE ( 'NONE', ( #160 ), #275, .F. ) ;
#288 = ORIENTED_EDGE ( 'NONE', *, *, #134, .T. ) ;
#289 = EDGE_LOOP ( 'NONE', ( #364, #89, #136, #229 ) ) ;
#290 = PLANE ( 'NONE',  #188 ) ;
#291 = EDGE_CURVE ( 'NONE', #34, #262, #363, .T. ) ;
#292 = VERTEX_POINT ( 'NONE', #108 ) ;
#293 = CARTESIAN_POINT ( 'NONE',  ( 10.00000000000000000, -20.00000000000000000, 0.000000000000000000 ) ) ;
#294 = EDGE_LOOP ( 'NONE', ( #32, #91, #29, #138 ) ) ;
#295 = DIRECTION ( 'NONE',  ( 1.000000000000000000, 0.000000000000000000, 0.000000000000000000 ) ) ;
#296 = DIRECTION ( 'NONE',  ( -0.000000000000000000, -0.000000000000000000, -1.000000000000000000 ) ) ;
#297 = FILL_AREA_STYLE ('',( #120 ) ) ;
#298 = VECTOR ( 'NONE', #110, 1000.000000000000000 ) ;
#299 = CARTESIAN_POINT ( 'NONE',  ( -8.000000000000000000, 18.00000000000000355, 0.000000000000000000 ) ) ;
#300 = DIRECTION ( 'NONE',  ( 0.000000000000000000, 1.000000000000000000, 0.000000000000000000 ) ) ;
#301 = PLANE ( 'NONE',  #319 ) ;
#302 =( GEOMETRIC_REPRESENTATION_CONTEXT ( 3 ) GLOBAL_UNCERTAINTY_ASSIGNED_CONTEXT ( ( #43 ) ) GLOBAL_UNIT_ASSIGNED_CONTEXT ( ( #17, #192, #250 ) ) REPRESENTATION_CONTEXT ( 'NONE', 'WORKASPACE' ) );
#303 = ADVANCED_FACE ( 'NONE', ( #282 ), #35, .T. ) ;
#304 = FACE_BOUND ( 'NONE', #260, .T. ) ;
#305 = CARTESIAN_POINT ( 'NONE',  ( 8.000000000000010658, -18.00000000000000355, 0.000000000000000000 ) ) ;
#306 = FACE_OUTER_BOUND ( 'NONE', #143, .T. ) ;
#307 = ORIENTED_EDGE ( 'NONE', *, *, #224, .F. ) ;
#308 = SURFACE_SIDE_STYLE ('',( #338 ) ) ;
#309 = ORIENTED_EDGE ( 'NONE', *, *, #18, .T. ) ;
#310 =( GEOMETRIC_REPRESENTATION_CONTEXT ( 3 ) GLOBAL_UNCERTAINTY_ASSIGNED_CONTEXT ( ( #234 ) ) GLOBAL_UNIT_ASSIGNED_CONTEXT ( ( #6, #235, #351 ) ) REPRESENTATION_CONTEXT ( 'NONE', 'WORKASPACE' ) );
#311 = EDGE_CURVE ( 'NONE', #226, #114, #8, .T. ) ;
#312 = PLANE ( 'NONE',  #343 ) ;
#313 = VECTOR ( 'NONE', #232, 1000.000000000000000 ) ;
#314 = ORIENTED_EDGE ( 'NONE', *, *, #153, .F. ) ;
#315 = VERTEX_POINT ( 'NONE', #293 ) ;
#316 = PRODUCT_DEFINITION ( 'UNKNOWN', '', #5, #122 ) ;
#317 = CARTESIAN_POINT ( 'NONE',  ( 10.00000000000000000, -20.00000000000000000, 1000.000000000000000 ) ) ;
#318 = ORIENTED_EDGE ( 'NONE', *, *, #10, .T. ) ;
#319 = AXIS2_PLACEMENT_3D ( 'NONE', #104, #102, #154 ) ;
#320 = EDGE_LOOP ( 'NONE', ( #307, #254, #374, #1 ) ) ;
#321 = UNCERTAINTY_MEASURE_WITH_UNIT (LENGTH_MEASURE( 1.000000000000000082E-05 ), #47, 'distance_accuracy_value', 'NONE');
#322 = DIRECTION ( 'NONE',  ( -1.000000000000000000, 0.000000000000000000, 0.000000000000000000 ) ) ;
#323 = VERTEX_POINT ( 'NONE', #124 ) ;
#324 = CARTESIAN_POINT ( 'NONE',  ( 8.000000000000010658, -18.00000000000000355, 1000.000000000000000 ) ) ;
#325 = LINE ( 'NONE', #330, #248 ) ;
#326 = VECTOR ( 'NONE', #300, 1000.000000000000000 ) ;
#327 = STYLED_ITEM ( 'NONE', ( #2 ), #56 ) ;
#328 = CARTESIAN_POINT ( 'NONE',  ( -8.000000000000000000, -18.00000000000000355, 0.000000000000000000 ) ) ;
#329 = CARTESIAN_POINT ( 'NONE',  ( -10.00000000000000000, 20.00000000000000000, 0.000000000000000000 ) ) ;
#330 = CARTESIAN_POINT ( 'NONE',  ( -10.00000000000000000, -20.00000000000000000, 1000.000000000000000 ) ) ;
#331 = AXIS2_PLACEMENT_3D ( 'NONE', #272, #183, #7 ) ;
#332 = AXIS2_PLACEMENT_3D ( 'NONE', #152, #357, #158 ) ;
#333 = PLANE ( 'NONE',  #113 ) ;
#334 = CARTESIAN_POINT ( 'NONE',  ( 0.000000000000000000, 0.000000000000000000, 0.000000000000000000 ) ) ;
#335 = PRESENTATION_STYLE_ASSIGNMENT (( #135 ) ) ;
#336 = ORIENTED_EDGE ( 'NONE', *, *, #179, .T. ) ;
#337 = AXIS2_PLACEMENT_3D ( 'NONE', #334, #213, #215 ) ;
#338 = SURFACE_STYLE_FILL_AREA ( #53 ) ;
#339 = PRODUCT_DEFINITION_SHAPE ( 'NONE', 'NONE',  #375 ) ;
#340 = ADVANCED_FACE ( 'NONE', ( #38 ), #290, .F. ) ;
#341 = EDGE_LOOP ( 'NONE', ( #57, #164, #175, #144 ) ) ;
#342 = ORIENTED_EDGE ( 'NONE', *, *, #28, .T. ) ;
#343 = AXIS2_PLACEMENT_3D ( 'NONE', #80, #372, #25 ) ;
#344 = ORIENTED_EDGE ( 'NONE', *, *, #228, .F. ) ;
#345 = DIRECTION ( 'NONE',  ( 0.000000000000000000, 0.000000000000000000, 1.000000000000000000 ) ) ;
#346 = ORIENTED_EDGE ( 'NONE', *, *, #311, .F. ) ;
#347 = ORIENTED_EDGE ( 'NONE', *, *, #185, .F. ) ;
#348 = ORIENTED_EDGE ( 'NONE', *, *, #185, .T. ) ;
#349 = EDGE_CURVE ( 'NONE', #171, #258, #65, .T. ) ;
#350 = DIRECTION ( 'NONE',  ( -0.000000000000000000, -0.000000000000000000, -1.000000000000000000 ) ) ;
#351 =( NAMED_UNIT ( * ) SI_UNIT ( $, .STERADIAN. ) SOLID_ANGLE_UNIT ( ) );
#352 = CARTESIAN_POINT ( 'NONE',  ( -8.000000000000000000, 18.00000000000000355, 1000.000000000000000 ) ) ;
#353 = VECTOR ( 'NONE', #190, 1000.000000000000000 ) ;
#354 = CARTESIAN_POINT ( 'NONE',  ( 10.00000000000000000, -20.00000000000000000, 1000.000000000000000 ) ) ;
#355 = EDGE_CURVE ( 'NONE', #292, #206, #230, .T. ) ;
#356 = CARTESIAN_POINT ( 'NONE',  ( 8.000000000000010658, 18.00000000000000355, 1000.000000000000000 ) ) ;
#357 = DIRECTION ( 'NONE',  ( 0.000000000000000000, 0.000000000000000000, 1.000000000000000000 ) ) ;
#358 = LINE ( 'NONE', #267, #271 ) ;
#359 = CARTESIAN_POINT ( 'NONE',  ( 0.000000000000000000, 0.000000000000000000, 0.000000000000000000 ) ) ;
#360 = VECTOR ( 'NONE', #350, 1000.000000000000000 ) ;
#361 = CARTESIAN_POINT ( 'NONE',  ( -8.000000000000000000, 18.00000000000000355, 0.000000000000000000 ) ) ;
#362 = LINE ( 'NONE', #115, #298 ) ;
#363 = LINE ( 'NONE', #50, #137 ) ;
#364 = ORIENTED_EDGE ( 'NONE', *, *, #111, .F. ) ;
#365 = CARTESIAN_POINT ( 'NONE',  ( -10.00000000000000000, 20.00000000000000000, 0.000000000000000000 ) ) ;
#366 = AXIS2_PLACEMENT_3D ( 'NONE', #68, #173, #268 ) ;
#367 = PRODUCT ( 'PR4020S2 \X2\041f0440043e04440438043b044c\X0\ \X2\0430043b044e043c0438043d043804350432044b0439\X0\, \X2\043f0440044f043c043e04430433043e043b044c043d0438043a\X0\ 40x20x2 (\X2\0410043d\X0\. \X2\044104350440043504310440043e\X0\)_00', 'PR4020S2 \X2\041f0440043e04440438043b044c\X0\ \X2\0430043b044e043c0438043d043804350432044b0439\X0\, \X2\043f0440044f043c043e04430433043e043b044c043d0438043a\X0\ 40x20x2 (\X2\0410043d\X0\. \X2\044104350440043504310440043e\X0\)_00', '', ( #189 ) ) ;
#368 = EDGE_LOOP ( 'NONE', ( #236, #119, #78, #348 ) ) ;
#369 = DIRECTION ( 'NONE',  ( -0.000000000000000000, -0.000000000000000000, -1.000000000000000000 ) ) ;
#370 = VERTEX_POINT ( 'NONE', #95 ) ;
#371 = VECTOR ( 'NONE', #151, 1000.000000000000000 ) ;
#372 = DIRECTION ( 'NONE',  ( 1.000000000000000000, 0.000000000000000000, 0.000000000000000000 ) ) ;
#373 = SHAPE_REPRESENTATION ( 'PR4020S2 \X2\041f0440043e04440438043b044c\X0\ \X2\0430043b044e043c0438043d043804350432044b0439\X0\, \X2\043f0440044f043c043e04430433043e043b044c043d0438043a\X0\ 40x20x2 (\X2\0410043d\X0\. \X2\044104350440043504310440043e\X0\)_00', ( #366 ), #73 ) ;
#374 = ORIENTED_EDGE ( 'NONE', *, *, #179, .F. ) ;
#375 = NEXT_ASSEMBLY_USAGE_OCCURRENCE ( 'NAUO1', ' ', ' ', #79, #316, $ ) ;
ENDSEC;
END-ISO-10303-21;
