ISO-10303-21;
HEADER;
FILE_DESCRIPTION (( 'STEP AP214' ),
    '1' );
FILE_NAME ('Ñáîðêà1.STEP',
    '2025-03-14T10:13:02',
    ( '' ),
    ( '' ),
    'SwSTEP 2.0',
    'SolidWorks 2025',
    '' );
FILE_SCHEMA (( 'AUTOMOTIVE_DESIGN' ));
ENDSEC;

DATA;
#1 = DIRECTION ( 'NONE',  ( 1.000000000000000000, 0.000000000000000000, 0.000000000000000000 ) ) ;
#2 =( LENGTH_UNIT ( ) NAMED_UNIT ( * ) SI_UNIT ( .MILLI., .METRE. ) );
#3 = LINE ( 'NONE', #117, #108 ) ;
#4 = PRODUCT_CONTEXT ( 'NONE', #235, 'mechanical' ) ;
#5 = CARTESIAN_POINT ( 'NONE',  ( 10.00000000000000000, 2.000000000000000000, 1000.000000000000000 ) ) ;
#6 = PRODUCT_DEFINITION_CONTEXT ( 'detailed design', #258, 'design' ) ;
#7 = ITEM_DEFINED_TRANSFORMATION ( 'NONE', 'NONE', #32,  #158 ) ;
#8 = LINE ( 'NONE', #89, #222 ) ;
#9 =( NAMED_UNIT ( * ) SI_UNIT ( $, .STERADIAN. ) SOLID_ANGLE_UNIT ( ) );
#10 = VECTOR ( 'NONE', #16, 1000.000000000000000 ) ;
#11 = CARTESIAN_POINT ( 'NONE',  ( 10.00000000000000000, 0.000000000000000000, 1000.000000000000000 ) ) ;
#12 = CARTESIAN_POINT ( 'NONE',  ( -10.00000000000000000, 0.000000000000000000, 1000.000000000000000 ) ) ;
#13 = SHAPE_REPRESENTATION ( 'T2015S2X \X2\041f0440043e04440438043b044c\X0\ \X2\0422\X0\-\X2\043e0431044004300437043d044b0439\X0\ (\X2\0442043004320440\X0\) 20\X2\0445\X0\15\X2\0445\X0\2 (\X2\041104350437\X0\ \X2\043f043e043a0440044b04420438044f\X0\)_00', ( #158 ), #62 ) ;
#14 = LINE ( 'NONE', #130, #184 ) ;
#15 = VECTOR ( 'NONE', #193, 1000.000000000000000 ) ;
#16 = DIRECTION ( 'NONE',  ( -0.000000000000000000, -1.000000000000000000, -0.000000000000000000 ) ) ;
#17 = DIRECTION ( 'NONE',  ( 3.336006684570783348E-17, -1.000000000000000000, -0.000000000000000000 ) ) ;
#18 = ORIENTED_EDGE ( 'NONE', *, *, #191, .F. ) ;
#19 = CARTESIAN_POINT ( 'NONE',  ( -10.00000000000000000, 2.000000000000000000, 0.000000000000000000 ) ) ;
#20 = AXIS2_PLACEMENT_3D ( 'NONE', #274, #301, #156 ) ;
#21 = ADVANCED_FACE ( 'NONE', ( #126 ), #176, .F. ) ;
#22 = LINE ( 'NONE', #144, #135 ) ;
#23 = VERTEX_POINT ( 'NONE', #347 ) ;
#24 = LINE ( 'NONE', #82, #282 ) ;
#25 = ORIENTED_EDGE ( 'NONE', *, *, #87, .T. ) ;
#26 = DIRECTION ( 'NONE',  ( -0.000000000000000000, -0.000000000000000000, -1.000000000000000000 ) ) ;
#27 = PRESENTATION_LAYER_ASSIGNMENT (  '', '', ( #234 ) ) ;
#28 = CARTESIAN_POINT ( 'NONE',  ( -10.00000000000000000, 0.000000000000000000, 1000.000000000000000 ) ) ;
#29 = CARTESIAN_POINT ( 'NONE',  ( -0.9999999999999995559, 2.000000000000000000, 0.000000000000000000 ) ) ;
#30 = EDGE_LOOP ( 'NONE', ( #337, #213, #132, #223 ) ) ;
#31 = DIRECTION ( 'NONE',  ( -1.000000000000000000, 0.000000000000000000, -0.000000000000000000 ) ) ;
#32 = AXIS2_PLACEMENT_3D ( 'NONE', #224, #204, #148 ) ;
#33 = PRODUCT_CONTEXT ( 'NONE', #119, 'mechanical' ) ;
#34 = VERTEX_POINT ( 'NONE', #11 ) ;
#35 = EDGE_CURVE ( 'NONE', #98, #137, #352, .T. ) ;
#36 = CARTESIAN_POINT ( 'NONE',  ( 10.00000000000000000, 0.000000000000000000, 1000.000000000000000 ) ) ;
#37 = UNCERTAINTY_MEASURE_WITH_UNIT (LENGTH_MEASURE( 1.000000000000000082E-05 ), #2, 'distance_accuracy_value', 'NONE');
#38 = SURFACE_STYLE_USAGE ( .BOTH. , #291 ) ;
#39 =( LENGTH_UNIT ( ) NAMED_UNIT ( * ) SI_UNIT ( .MILLI., .METRE. ) );
#40 = MECHANICAL_DESIGN_GEOMETRIC_PRESENTATION_REPRESENTATION (  '', ( #234 ), #147 ) ;
#41 =( LENGTH_UNIT ( ) NAMED_UNIT ( * ) SI_UNIT ( .MILLI., .METRE. ) );
#42 = CARTESIAN_POINT ( 'NONE',  ( -10.00000000000000000, 2.000000000000000000, 1000.000000000000000 ) ) ;
#43 = FACE_OUTER_BOUND ( 'NONE', #30, .T. ) ;
#44 = EDGE_LOOP ( 'NONE', ( #342, #297, #314, #81 ) ) ;
#45 = DIRECTION ( 'NONE',  ( 1.000000000000000000, 0.000000000000000000, 0.000000000000000000 ) ) ;
#46 = COLOUR_RGB ( '',0.8666666666666666963, 0.9098039215686274384, 1.000000000000000000 ) ;
#47 = LINE ( 'NONE', #209, #10 ) ;
#48 = ORIENTED_EDGE ( 'NONE', *, *, #254, .T. ) ;
#49 = PLANE ( 'NONE',  #206 ) ;
#50 = EDGE_CURVE ( 'NONE', #65, #218, #263, .T. ) ;
#51 = ORIENTED_EDGE ( 'NONE', *, *, #363, .T. ) ;
#52 = AXIS2_PLACEMENT_3D ( 'NONE', #321, #180, #64 ) ;
#53 = EDGE_CURVE ( 'NONE', #137, #253, #8, .T. ) ;
#54 = SURFACE_SIDE_STYLE ('',( #78 ) ) ;
#55 = DIRECTION ( 'NONE',  ( -1.000000000000000000, -0.000000000000000000, -0.000000000000000000 ) ) ;
#56 = ORIENTED_EDGE ( 'NONE', *, *, #348, .F. ) ;
#57 = EDGE_CURVE ( 'NONE', #173, #115, #92, .T. ) ;
#58 = CARTESIAN_POINT ( 'NONE',  ( 1.000000000000000000, 2.000000000000000000, 0.000000000000000000 ) ) ;
#59 = PLANE ( 'NONE',  #305 ) ;
#60 = ADVANCED_FACE ( 'NONE', ( #227 ), #290, .F. ) ;
#61 = ORIENTED_EDGE ( 'NONE', *, *, #53, .F. ) ;
#62 =( GEOMETRIC_REPRESENTATION_CONTEXT ( 3 ) GLOBAL_UNCERTAINTY_ASSIGNED_CONTEXT ( ( #177 ) ) GLOBAL_UNIT_ASSIGNED_CONTEXT ( ( #362, #136, #106 ) ) REPRESENTATION_CONTEXT ( 'NONE', 'WORKASPACE' ) );
#63 = DIRECTION ( 'NONE',  ( 0.000000000000000000, 0.000000000000000000, 1.000000000000000000 ) ) ;
#64 = DIRECTION ( 'NONE',  ( -1.000000000000000000, 0.000000000000000000, -0.000000000000000000 ) ) ;
#65 = VERTEX_POINT ( 'NONE', #318 ) ;
#66 = UNCERTAINTY_MEASURE_WITH_UNIT (LENGTH_MEASURE( 1.000000000000000082E-05 ), #39, 'distance_accuracy_value', 'NONE');
#67 = CARTESIAN_POINT ( 'NONE',  ( -0.9999999999999995559, 2.000000000000000000, 1000.000000000000000 ) ) ;
#68 = CARTESIAN_POINT ( 'NONE',  ( 10.00000000000000000, 0.000000000000000000, 1000.000000000000000 ) ) ;
#69 = CARTESIAN_POINT ( 'NONE',  ( -10.00000000000000000, 2.000000000000000000, 0.000000000000000000 ) ) ;
#70 = ADVANCED_FACE ( 'NONE', ( #255 ), #59, .F. ) ;
#71 = ORIENTED_EDGE ( 'NONE', *, *, #228, .F. ) ;
#72 = DIRECTION ( 'NONE',  ( -1.000000000000000000, -0.000000000000000000, -0.000000000000000000 ) ) ;
#73 = LINE ( 'NONE', #272, #294 ) ;
#74 = AXIS2_PLACEMENT_3D ( 'NONE', #28, #277, #112 ) ;
#75 = ORIENTED_EDGE ( 'NONE', *, *, #216, .F. ) ;
#76 = DIRECTION ( 'NONE',  ( 0.000000000000000000, 0.000000000000000000, 1.000000000000000000 ) ) ;
#77 = CARTESIAN_POINT ( 'NONE',  ( -1.000000000000000000, 15.00000000000000000, 0.000000000000000000 ) ) ;
#78 = SURFACE_STYLE_FILL_AREA ( #283 ) ;
#79 = VECTOR ( 'NONE', #72, 1000.000000000000000 ) ;
#80 = ORIENTED_EDGE ( 'NONE', *, *, #35, .T. ) ;
#81 = ORIENTED_EDGE ( 'NONE', *, *, #200, .T. ) ;
#82 = CARTESIAN_POINT ( 'NONE',  ( 10.00000000000000000, 0.000000000000000000, 1000.000000000000000 ) ) ;
#83 = EDGE_LOOP ( 'NONE', ( #215, #233, #196, #284 ) ) ;
#84 = DIRECTION ( 'NONE',  ( -1.000000000000000000, -0.000000000000000000, -0.000000000000000000 ) ) ;
#85 = VECTOR ( 'NONE', #168, 1000.000000000000000 ) ;
#86 = ORIENTED_EDGE ( 'NONE', *, *, #164, .F. ) ;
#87 = EDGE_CURVE ( 'NONE', #34, #65, #153, .T. ) ;
#88 = DIRECTION ( 'NONE',  ( 0.000000000000000000, 1.000000000000000000, 0.000000000000000000 ) ) ;
#89 = CARTESIAN_POINT ( 'NONE',  ( -10.00000000000000000, 0.000000000000000000, 0.000000000000000000 ) ) ;
#90 = MECHANICAL_DESIGN_GEOMETRIC_PRESENTATION_REPRESENTATION (  '', ( #103 ), #256 ) ;
#91 = CARTESIAN_POINT ( 'NONE',  ( 0.000000000000000000, 0.000000000000000000, 0.000000000000000000 ) ) ;
#92 = LINE ( 'NONE', #203, #276 ) ;
#93 = LINE ( 'NONE', #77, #85 ) ;
#94 = VECTOR ( 'NONE', #268, 1000.000000000000000 ) ;
#95 = CARTESIAN_POINT ( 'NONE',  ( -10.00000000000000000, 0.000000000000000000, 1000.000000000000000 ) ) ;
#96 = EDGE_CURVE ( 'NONE', #198, #183, #3, .T. ) ;
#97 = CARTESIAN_POINT ( 'NONE',  ( -10.00000000000000000, 0.000000000000000000, 0.000000000000000000 ) ) ;
#98 = VERTEX_POINT ( 'NONE', #225 ) ;
#99 =( REPRESENTATION_RELATIONSHIP ('NONE','NONE', #239, #13 ) REPRESENTATION_RELATIONSHIP_WITH_TRANSFORMATION ( #7 )SHAPE_REPRESENTATION_RELATIONSHIP( ) );
#100 = ADVANCED_FACE ( 'NONE', ( #261 ), #293, .T. ) ;
#101 = DIRECTION ( 'NONE',  ( 0.000000000000000000, 1.000000000000000000, 0.000000000000000000 ) ) ;
#102 = LINE ( 'NONE', #95, #129 ) ;
#103 = STYLED_ITEM ( 'NONE', ( #308 ), #189 ) ;
#104 = LINE ( 'NONE', #344, #123 ) ;
#105 = MANIFOLD_SOLID_BREP ( '\X2\0411043e0431044b0448043a0430\X0\-\X2\0412044b0442044f043d04430442044c\X0\1', #116 ) ;
#106 =( NAMED_UNIT ( * ) SI_UNIT ( $, .STERADIAN. ) SOLID_ANGLE_UNIT ( ) );
#107 = DIRECTION ( 'NONE',  ( 0.000000000000000000, 1.000000000000000000, 0.000000000000000000 ) ) ;
#108 = VECTOR ( 'NONE', #201, 1000.000000000000000 ) ;
#109 = ORIENTED_EDGE ( 'NONE', *, *, #366, .T. ) ;
#110 = LINE ( 'NONE', #281, #230 ) ;
#111 = EDGE_LOOP ( 'NONE', ( #194, #355, #259, #166, #86, #140, #186, #61 ) ) ;
#112 = DIRECTION ( 'NONE',  ( 0.000000000000000000, -0.000000000000000000, 1.000000000000000000 ) ) ;
#113 = ORIENTED_EDGE ( 'NONE', *, *, #228, .T. ) ;
#114 = APPLICATION_PROTOCOL_DEFINITION ( 'draft international standard', 'automotive_design', 1998, #235 ) ;
#115 = VERTEX_POINT ( 'NONE', #236 ) ;
#116 = CLOSED_SHELL ( 'NONE', ( #131, #316, #249, #141, #269, #21, #60, #341, #70, #100 ) ) ;
#117 = CARTESIAN_POINT ( 'NONE',  ( -10.00000000000000000, 2.000000000000000000, 1000.000000000000000 ) ) ;
#118 = DIRECTION ( 'NONE',  ( -0.000000000000000000, -0.000000000000000000, -1.000000000000000000 ) ) ;
#119 = APPLICATION_CONTEXT ( 'automotive_design' ) ;
#120 = CONTEXT_DEPENDENT_SHAPE_REPRESENTATION ( #99, #275 ) ;
#121 = LINE ( 'NONE', #356, #334 ) ;
#122 = PRODUCT_DEFINITION ( 'UNKNOWN', '', #295, #262 ) ;
#123 = VECTOR ( 'NONE', #55, 1000.000000000000000 ) ;
#124 = APPLICATION_PROTOCOL_DEFINITION ( 'draft international standard', 'automotive_design', 1998, #119 ) ;
#125 = CARTESIAN_POINT ( 'NONE',  ( 0.000000000000000000, 0.000000000000000000, 1000.000000000000000 ) ) ;
#126 = FACE_OUTER_BOUND ( 'NONE', #44, .T. ) ;
#127 = DIRECTION ( 'NONE',  ( 0.000000000000000000, 0.000000000000000000, -1.000000000000000000 ) ) ;
#128 = EDGE_CURVE ( 'NONE', #218, #330, #121, .T. ) ;
#129 = VECTOR ( 'NONE', #208, 1000.000000000000000 ) ;
#130 = CARTESIAN_POINT ( 'NONE',  ( -0.9999999999999995559, 2.000000000000000000, 1000.000000000000000 ) ) ;
#131 = ADVANCED_FACE ( 'NONE', ( #300 ), #49, .F. ) ;
#132 = ORIENTED_EDGE ( 'NONE', *, *, #363, .F. ) ;
#133 = FACE_OUTER_BOUND ( 'NONE', #339, .T. ) ;
#134 = PLANE ( 'NONE',  #20 ) ;
#135 = VECTOR ( 'NONE', #250, 1000.000000000000000 ) ;
#136 =( NAMED_UNIT ( * ) PLANE_ANGLE_UNIT ( ) SI_UNIT ( $, .RADIAN. ) );
#137 = VERTEX_POINT ( 'NONE', #97 ) ;
#138 = PRODUCT_RELATED_PRODUCT_CATEGORY ( 'part', '', ( #190 ) ) ;
#139 = DIRECTION ( 'NONE',  ( 3.336006684570783348E-17, -1.000000000000000000, -0.000000000000000000 ) ) ;
#140 = ORIENTED_EDGE ( 'NONE', *, *, #128, .F. ) ;
#141 = ADVANCED_FACE ( 'NONE', ( #43 ), #134, .F. ) ;
#142 = DIRECTION ( 'NONE',  ( 0.000000000000000000, -0.000000000000000000, -1.000000000000000000 ) ) ;
#143 = ORIENTED_EDGE ( 'NONE', *, *, #267, .F. ) ;
#144 = CARTESIAN_POINT ( 'NONE',  ( -10.00000000000000000, 0.000000000000000000, 1000.000000000000000 ) ) ;
#145 = DIRECTION ( 'NONE',  ( 1.000000000000000000, 3.336006684570783348E-17, -0.000000000000000000 ) ) ;
#146 = VECTOR ( 'NONE', #315, 1000.000000000000000 ) ;
#147 =( GEOMETRIC_REPRESENTATION_CONTEXT ( 3 ) GLOBAL_UNCERTAINTY_ASSIGNED_CONTEXT ( ( #322 ) ) GLOBAL_UNIT_ASSIGNED_CONTEXT ( ( #41, #264, #159 ) ) REPRESENTATION_CONTEXT ( 'NONE', 'WORKASPACE' ) );
#148 = DIRECTION ( 'NONE',  ( 1.000000000000000000, 0.000000000000000000, 0.000000000000000000 ) ) ;
#149 = DIRECTION ( 'NONE',  ( -0.000000000000000000, -0.000000000000000000, -1.000000000000000000 ) ) ;
#150 = FILL_AREA_STYLE_COLOUR ( '', #241 ) ;
#151 = PRESENTATION_STYLE_ASSIGNMENT (( #38 ) ) ;
#152 = CARTESIAN_POINT ( 'NONE',  ( 0.000000000000000000, 0.000000000000000000, 0.000000000000000000 ) ) ;
#153 = LINE ( 'NONE', #36, #181 ) ;
#154 = CARTESIAN_POINT ( 'NONE',  ( 1.000000000000000000, 2.000000000000000000, 1000.000000000000000 ) ) ;
#155 = EDGE_LOOP ( 'NONE', ( #247, #56, #75, #80 ) ) ;
#156 = DIRECTION ( 'NONE',  ( 0.000000000000000000, -0.000000000000000000, -1.000000000000000000 ) ) ;
#157 = ORIENTED_EDGE ( 'NONE', *, *, #348, .T. ) ;
#158 = AXIS2_PLACEMENT_3D ( 'NONE', #369, #214, #311 ) ;
#159 =( NAMED_UNIT ( * ) SI_UNIT ( $, .STERADIAN. ) SOLID_ANGLE_UNIT ( ) );
#160 = PLANE ( 'NONE',  #367 ) ;
#161 = EDGE_LOOP ( 'NONE', ( #48, #169, #18, #163 ) ) ;
#162 = CARTESIAN_POINT ( 'NONE',  ( -10.00000000000000000, 2.000000000000000000, 1000.000000000000000 ) ) ;
#163 = ORIENTED_EDGE ( 'NONE', *, *, #245, .T. ) ;
#164 = EDGE_CURVE ( 'NONE', #330, #273, #232, .T. ) ;
#165 = CARTESIAN_POINT ( 'NONE',  ( 10.00000000000000000, 0.000000000000000000, 0.000000000000000000 ) ) ;
#166 = ORIENTED_EDGE ( 'NONE', *, *, #328, .F. ) ;
#167 = VERTEX_POINT ( 'NONE', #361 ) ;
#168 = DIRECTION ( 'NONE',  ( -1.000000000000000000, -0.000000000000000000, -0.000000000000000000 ) ) ;
#169 = ORIENTED_EDGE ( 'NONE', *, *, #96, .F. ) ;
#170 = APPLICATION_CONTEXT ( 'automotive_design' ) ;
#171 = DIRECTION ( 'NONE',  ( 0.000000000000000000, -1.000000000000000000, 0.000000000000000000 ) ) ;
#172 =( NAMED_UNIT ( * ) PLANE_ANGLE_UNIT ( ) SI_UNIT ( $, .RADIAN. ) );
#173 = VERTEX_POINT ( 'NONE', #357 ) ;
#174 = VECTOR ( 'NONE', #332, 1000.000000000000000 ) ;
#175 =( GEOMETRIC_REPRESENTATION_CONTEXT ( 3 ) GLOBAL_UNCERTAINTY_ASSIGNED_CONTEXT ( ( #66 ) ) GLOBAL_UNIT_ASSIGNED_CONTEXT ( ( #39, #317, #323 ) ) REPRESENTATION_CONTEXT ( 'NONE', 'WORKASPACE' ) );
#176 = PLANE ( 'NONE',  #349 ) ;
#177 = UNCERTAINTY_MEASURE_WITH_UNIT (LENGTH_MEASURE( 1.000000000000000082E-05 ), #362, 'distance_accuracy_value', 'NONE');
#178 = SHAPE_REPRESENTATION_RELATIONSHIP ( 'NONE' , 'NONE' ,  #13, #189 ) ;
#179 = SURFACE_STYLE_FILL_AREA ( #229 ) ;
#180 = DIRECTION ( 'NONE',  ( 0.000000000000000000, 0.000000000000000000, -1.000000000000000000 ) ) ;
#181 = VECTOR ( 'NONE', #88, 1000.000000000000000 ) ;
#182 = LINE ( 'NONE', #69, #174 ) ;
#183 = VERTEX_POINT ( 'NONE', #19 ) ;
#184 = VECTOR ( 'NONE', #212, 1000.000000000000000 ) ;
#185 = CARTESIAN_POINT ( 'NONE',  ( 1.000000000000000000, 15.00000000000000000, 1000.000000000000000 ) ) ;
#186 = ORIENTED_EDGE ( 'NONE', *, *, #353, .F. ) ;
#187 = DIRECTION ( 'NONE',  ( 0.000000000000000000, 0.000000000000000000, 1.000000000000000000 ) ) ;
#188 = ORIENTED_EDGE ( 'NONE', *, *, #358, .T. ) ;
#189 = ADVANCED_BREP_SHAPE_REPRESENTATION ( '', ( #105, #158 ), #62 ) ;
#190 = PRODUCT ( 'T2015S2X \X2\041f0440043e04440438043b044c\X0\ \X2\0422\X0\-\X2\043e0431044004300437043d044b0439\X0\ (\X2\0442043004320440\X0\) 20\X2\0445\X0\15\X2\0445\X0\2 (\X2\041104350437\X0\ \X2\043f043e043a0440044b04420438044f\X0\)_00', 'T2015S2X \X2\041f0440043e04440438043b044c\X0\ \X2\0422\X0\-\X2\043e0431044004300437043d044b0439\X0\ (\X2\0442043004320440\X0\) 20\X2\0445\X0\15\X2\0445\X0\2 (\X2\041104350437\X0\ \X2\043f043e043a0440044b04420438044f\X0\)_00', '', ( #4 ) ) ;
#191 = EDGE_CURVE ( 'NONE', #167, #198, #296, .T. ) ;
#192 = SURFACE_STYLE_USAGE ( .BOTH. , #54 ) ;
#193 = DIRECTION ( 'NONE',  ( -0.000000000000000000, -0.000000000000000000, -1.000000000000000000 ) ) ;
#194 = ORIENTED_EDGE ( 'NONE', *, *, #226, .F. ) ;
#195 = LINE ( 'NONE', #165, #270 ) ;
#196 = ORIENTED_EDGE ( 'NONE', *, *, #358, .F. ) ;
#197 = VECTOR ( 'NONE', #139, 1000.000000000000000 ) ;
#198 = VERTEX_POINT ( 'NONE', #42 ) ;
#199 = PRODUCT_DEFINITION ( 'UNKNOWN', '', #335, #6 ) ;
#200 = EDGE_CURVE ( 'NONE', #23, #273, #354, .T. ) ;
#201 = DIRECTION ( 'NONE',  ( -0.000000000000000000, -0.000000000000000000, -1.000000000000000000 ) ) ;
#202 = DIRECTION ( 'NONE',  ( 0.000000000000000000, 0.000000000000000000, 1.000000000000000000 ) ) ;
#203 = CARTESIAN_POINT ( 'NONE',  ( -1.000000000000000000, 15.00000000000000000, 1000.000000000000000 ) ) ;
#204 = DIRECTION ( 'NONE',  ( 0.000000000000000000, 0.000000000000000000, 1.000000000000000000 ) ) ;
#205 = CARTESIAN_POINT ( 'NONE',  ( -10.00000000000000000, 2.000000000000000000, 1000.000000000000000 ) ) ;
#206 = AXIS2_PLACEMENT_3D ( 'NONE', #12, #45, #127 ) ;
#207 = AXIS2_PLACEMENT_3D ( 'NONE', #91, #63, #292 ) ;
#208 = DIRECTION ( 'NONE',  ( 1.000000000000000000, 0.000000000000000000, 0.000000000000000000 ) ) ;
#209 = CARTESIAN_POINT ( 'NONE',  ( -10.00000000000000000, 0.000000000000000000, 0.000000000000000000 ) ) ;
#210 = EDGE_LOOP ( 'NONE', ( #333, #251, #237, #157 ) ) ;
#211 = FACE_OUTER_BOUND ( 'NONE', #210, .T. ) ;
#212 = DIRECTION ( 'NONE',  ( -0.000000000000000000, -0.000000000000000000, -1.000000000000000000 ) ) ;
#213 = ORIENTED_EDGE ( 'NONE', *, *, #343, .F. ) ;
#214 = DIRECTION ( 'NONE',  ( 0.000000000000000000, 0.000000000000000000, 1.000000000000000000 ) ) ;
#215 = ORIENTED_EDGE ( 'NONE', *, *, #226, .T. ) ;
#216 = EDGE_CURVE ( 'NONE', #98, #34, #102, .T. ) ;
#217 = FILL_AREA_STYLE_COLOUR ( '', #46 ) ;
#218 = VERTEX_POINT ( 'NONE', #238 ) ;
#219 = ORIENTED_EDGE ( 'NONE', *, *, #245, .F. ) ;
#220 = CARTESIAN_POINT ( 'NONE',  ( 1.000000000000000000, 2.000000000000000000, 1000.000000000000000 ) ) ;
#221 = EDGE_LOOP ( 'NONE', ( #365, #219, #143, #345 ) ) ;
#222 = VECTOR ( 'NONE', #350, 1000.000000000000000 ) ;
#223 = ORIENTED_EDGE ( 'NONE', *, *, #50, .T. ) ;
#224 = CARTESIAN_POINT ( 'NONE',  ( 996.8561698549032144, 998.7641762585977858, 496.8806719085905570 ) ) ;
#225 = CARTESIAN_POINT ( 'NONE',  ( -10.00000000000000000, 0.000000000000000000, 1000.000000000000000 ) ) ;
#226 = EDGE_CURVE ( 'NONE', #183, #137, #47, .T. ) ;
#227 = FACE_OUTER_BOUND ( 'NONE', #221, .T. ) ;
#228 = EDGE_CURVE ( 'NONE', #266, #23, #299, .T. ) ;
#229 = FILL_AREA_STYLE ('',( #150 ) ) ;
#230 = VECTOR ( 'NONE', #84, 1000.000000000000000 ) ;
#231 = DIRECTION ( 'NONE',  ( 0.000000000000000000, -0.000000000000000000, -1.000000000000000000 ) ) ;
#232 = LINE ( 'NONE', #242, #94 ) ;
#233 = ORIENTED_EDGE ( 'NONE', *, *, #35, .F. ) ;
#234 = STYLED_ITEM ( 'NONE', ( #151 ), #105 ) ;
#235 = APPLICATION_CONTEXT ( 'automotive_design' ) ;
#236 = CARTESIAN_POINT ( 'NONE',  ( -1.000000000000000000, 15.00000000000000000, 0.000000000000000000 ) ) ;
#237 = ORIENTED_EDGE ( 'NONE', *, *, #87, .F. ) ;
#238 = CARTESIAN_POINT ( 'NONE',  ( 10.00000000000000000, 2.000000000000000000, 0.000000000000000000 ) ) ;
#239 = SHAPE_REPRESENTATION ( '\X2\04210431043e0440043a0430\X0\1', ( #307, #32 ), #175 ) ;
#240 = PLANE ( 'NONE',  #320 ) ;
#241 = COLOUR_RGB ( '',0.8666666666666666963, 0.9098039215686274384, 1.000000000000000000 ) ;
#242 = CARTESIAN_POINT ( 'NONE',  ( 1.000000000000000000, 2.000000000000000000, 0.000000000000000000 ) ) ;
#243 = PRODUCT_DEFINITION_SHAPE ( 'NONE', 'NONE',  #122 ) ;
#244 = LINE ( 'NONE', #220, #15 ) ;
#245 = EDGE_CURVE ( 'NONE', #167, #278, #14, .T. ) ;
#246 = FACE_OUTER_BOUND ( 'NONE', #161, .T. ) ;
#247 = ORIENTED_EDGE ( 'NONE', *, *, #53, .T. ) ;
#248 = PRESENTATION_LAYER_ASSIGNMENT (  '', '', ( #103 ) ) ;
#249 = ADVANCED_FACE ( 'NONE', ( #211 ), #160, .F. ) ;
#250 = DIRECTION ( 'NONE',  ( -0.000000000000000000, -1.000000000000000000, -0.000000000000000000 ) ) ;
#251 = ORIENTED_EDGE ( 'NONE', *, *, #50, .F. ) ;
#252 = CARTESIAN_POINT ( 'NONE',  ( -0.9999999999999995559, 2.000000000000000000, 0.000000000000000000 ) ) ;
#253 = VERTEX_POINT ( 'NONE', #329 ) ;
#254 = EDGE_CURVE ( 'NONE', #278, #183, #182, .T. ) ;
#255 = FACE_OUTER_BOUND ( 'NONE', #310, .T. ) ;
#256 =( GEOMETRIC_REPRESENTATION_CONTEXT ( 3 ) GLOBAL_UNCERTAINTY_ASSIGNED_CONTEXT ( ( #37 ) ) GLOBAL_UNIT_ASSIGNED_CONTEXT ( ( #2, #172, #9 ) ) REPRESENTATION_CONTEXT ( 'NONE', 'WORKASPACE' ) );
#257 = APPLICATION_PROTOCOL_DEFINITION ( 'draft international standard', 'automotive_design', 1998, #170 ) ;
#258 = APPLICATION_CONTEXT ( 'automotive_design' ) ;
#259 = ORIENTED_EDGE ( 'NONE', *, *, #298, .F. ) ;
#260 = SHAPE_DEFINITION_REPRESENTATION ( #338, #13 ) ;
#261 = FACE_OUTER_BOUND ( 'NONE', #111, .T. ) ;
#262 = PRODUCT_DEFINITION_CONTEXT ( 'detailed design', #170, 'design' ) ;
#263 = LINE ( 'NONE', #5, #146 ) ;
#264 =( NAMED_UNIT ( * ) PLANE_ANGLE_UNIT ( ) SI_UNIT ( $, .RADIAN. ) );
#265 = DIRECTION ( 'NONE',  ( -1.000000000000000000, -0.000000000000000000, -0.000000000000000000 ) ) ;
#266 = VERTEX_POINT ( 'NONE', #154 ) ;
#267 = EDGE_CURVE ( 'NONE', #173, #167, #73, .T. ) ;
#268 = DIRECTION ( 'NONE',  ( 0.000000000000000000, 1.000000000000000000, 0.000000000000000000 ) ) ;
#269 = ADVANCED_FACE ( 'NONE', ( #133 ), #240, .F. ) ;
#270 = VECTOR ( 'NONE', #107, 1000.000000000000000 ) ;
#271 = DIRECTION ( 'NONE',  ( -0.000000000000000000, -0.000000000000000000, -1.000000000000000000 ) ) ;
#272 = CARTESIAN_POINT ( 'NONE',  ( -0.9999999999999995559, 2.000000000000000000, 1000.000000000000000 ) ) ;
#273 = VERTEX_POINT ( 'NONE', #313 ) ;
#274 = CARTESIAN_POINT ( 'NONE',  ( 1.000000000000000000, 2.000000000000000000, 1000.000000000000000 ) ) ;
#275 = PRODUCT_DEFINITION_SHAPE ( 'NONE', 'NONE',  #371 ) ;
#276 = VECTOR ( 'NONE', #118, 1000.000000000000000 ) ;
#277 = DIRECTION ( 'NONE',  ( 0.000000000000000000, 1.000000000000000000, 0.000000000000000000 ) ) ;
#278 = VERTEX_POINT ( 'NONE', #29 ) ;
#279 = DIRECTION ( 'NONE',  ( 0.000000000000000000, -1.000000000000000000, 0.000000000000000000 ) ) ;
#280 = PRODUCT_RELATED_PRODUCT_CATEGORY ( 'part', '', ( #304 ) ) ;
#281 = CARTESIAN_POINT ( 'NONE',  ( -1.000000000000000000, 15.00000000000000000, 1000.000000000000000 ) ) ;
#282 = VECTOR ( 'NONE', #26, 1000.000000000000000 ) ;
#283 = FILL_AREA_STYLE ('',( #217 ) ) ;
#284 = ORIENTED_EDGE ( 'NONE', *, *, #96, .T. ) ;
#285 = FACE_OUTER_BOUND ( 'NONE', #155, .T. ) ;
#286 = ORIENTED_EDGE ( 'NONE', *, *, #200, .F. ) ;
#287 = DIRECTION ( 'NONE',  ( 0.000000000000000000, 0.000000000000000000, -1.000000000000000000 ) ) ;
#288 = VECTOR ( 'NONE', #271, 1000.000000000000000 ) ;
#289 = CARTESIAN_POINT ( 'NONE',  ( -10.00000000000000000, 0.000000000000000000, 1000.000000000000000 ) ) ;
#290 = PLANE ( 'NONE',  #327 ) ;
#291 = SURFACE_SIDE_STYLE ('',( #179 ) ) ;
#292 = DIRECTION ( 'NONE',  ( 1.000000000000000000, 0.000000000000000000, 0.000000000000000000 ) ) ;
#293 = PLANE ( 'NONE',  #52 ) ;
#294 = VECTOR ( 'NONE', #17, 1000.000000000000000 ) ;
#295 = PRODUCT_DEFINITION_FORMATION_WITH_SPECIFIED_SOURCE ( 'ANY', '', #304, .NOT_KNOWN. ) ;
#296 = LINE ( 'NONE', #205, #79 ) ;
#297 = ORIENTED_EDGE ( 'NONE', *, *, #57, .F. ) ;
#298 = EDGE_CURVE ( 'NONE', #115, #278, #364, .T. ) ;
#299 = LINE ( 'NONE', #326, #340 ) ;
#300 = FACE_OUTER_BOUND ( 'NONE', #83, .T. ) ;
#301 = DIRECTION ( 'NONE',  ( 0.000000000000000000, -1.000000000000000000, 0.000000000000000000 ) ) ;
#302 = ORIENTED_EDGE ( 'NONE', *, *, #343, .T. ) ;
#303 = PLANE ( 'NONE',  #74 ) ;
#304 = PRODUCT ( '\X2\04210431043e0440043a0430\X0\1', '\X2\04210431043e0440043a0430\X0\1', '', ( #33 ) ) ;
#305 = AXIS2_PLACEMENT_3D ( 'NONE', #125, #287, #31 ) ;
#306 = VECTOR ( 'NONE', #149, 1000.000000000000000 ) ;
#307 = AXIS2_PLACEMENT_3D ( 'NONE', #152, #202, #1 ) ;
#308 = PRESENTATION_STYLE_ASSIGNMENT (( #192 ) ) ;
#309 = PLANE ( 'NONE',  #360 ) ;
#310 = EDGE_LOOP ( 'NONE', ( #188, #370, #25, #51, #113, #109, #312, #368 ) ) ;
#311 = DIRECTION ( 'NONE',  ( 1.000000000000000000, 0.000000000000000000, 0.000000000000000000 ) ) ;
#312 = ORIENTED_EDGE ( 'NONE', *, *, #267, .T. ) ;
#313 = CARTESIAN_POINT ( 'NONE',  ( 1.000000000000000000, 15.00000000000000000, 0.000000000000000000 ) ) ;
#314 = ORIENTED_EDGE ( 'NONE', *, *, #366, .F. ) ;
#315 = DIRECTION ( 'NONE',  ( -0.000000000000000000, -0.000000000000000000, -1.000000000000000000 ) ) ;
#316 = ADVANCED_FACE ( 'NONE', ( #285 ), #303, .F. ) ;
#317 =( NAMED_UNIT ( * ) PLANE_ANGLE_UNIT ( ) SI_UNIT ( $, .RADIAN. ) );
#318 = CARTESIAN_POINT ( 'NONE',  ( 10.00000000000000000, 2.000000000000000000, 1000.000000000000000 ) ) ;
#319 = APPLICATION_PROTOCOL_DEFINITION ( 'draft international standard', 'automotive_design', 1998, #258 ) ;
#320 = AXIS2_PLACEMENT_3D ( 'NONE', #359, #336, #76 ) ;
#321 = CARTESIAN_POINT ( 'NONE',  ( 0.000000000000000000, 0.000000000000000000, 0.000000000000000000 ) ) ;
#322 = UNCERTAINTY_MEASURE_WITH_UNIT (LENGTH_MEASURE( 1.000000000000000082E-05 ), #41, 'distance_accuracy_value', 'NONE');
#323 =( NAMED_UNIT ( * ) SI_UNIT ( $, .STERADIAN. ) SOLID_ANGLE_UNIT ( ) );
#324 = DIRECTION ( 'NONE',  ( -3.336006684570783348E-17, 1.000000000000000000, 0.000000000000000000 ) ) ;
#325 = ORIENTED_EDGE ( 'NONE', *, *, #164, .T. ) ;
#326 = CARTESIAN_POINT ( 'NONE',  ( 1.000000000000000000, 2.000000000000000000, 1000.000000000000000 ) ) ;
#327 = AXIS2_PLACEMENT_3D ( 'NONE', #67, #145, #324 ) ;
#328 = EDGE_CURVE ( 'NONE', #273, #115, #93, .T. ) ;
#329 = CARTESIAN_POINT ( 'NONE',  ( 10.00000000000000000, 0.000000000000000000, 0.000000000000000000 ) ) ;
#330 = VERTEX_POINT ( 'NONE', #58 ) ;
#331 = DIRECTION ( 'NONE',  ( -1.000000000000000000, 0.000000000000000000, 0.000000000000000000 ) ) ;
#332 = DIRECTION ( 'NONE',  ( -1.000000000000000000, -0.000000000000000000, -0.000000000000000000 ) ) ;
#333 = ORIENTED_EDGE ( 'NONE', *, *, #353, .T. ) ;
#334 = VECTOR ( 'NONE', #265, 1000.000000000000000 ) ;
#335 = PRODUCT_DEFINITION_FORMATION_WITH_SPECIFIED_SOURCE ( 'ANY', '', #190, .NOT_KNOWN. ) ;
#336 = DIRECTION ( 'NONE',  ( -1.000000000000000000, 0.000000000000000000, 0.000000000000000000 ) ) ;
#337 = ORIENTED_EDGE ( 'NONE', *, *, #128, .T. ) ;
#338 = PRODUCT_DEFINITION_SHAPE ( 'NONE', 'NONE',  #199 ) ;
#339 = EDGE_LOOP ( 'NONE', ( #325, #286, #71, #302 ) ) ;
#340 = VECTOR ( 'NONE', #101, 1000.000000000000000 ) ;
#341 = ADVANCED_FACE ( 'NONE', ( #246 ), #309, .F. ) ;
#342 = ORIENTED_EDGE ( 'NONE', *, *, #328, .T. ) ;
#343 = EDGE_CURVE ( 'NONE', #266, #330, #244, .T. ) ;
#344 = CARTESIAN_POINT ( 'NONE',  ( 1.000000000000000000, 2.000000000000000000, 1000.000000000000000 ) ) ;
#345 = ORIENTED_EDGE ( 'NONE', *, *, #57, .T. ) ;
#346 = SHAPE_DEFINITION_REPRESENTATION ( #243, #239 ) ;
#347 = CARTESIAN_POINT ( 'NONE',  ( 1.000000000000000000, 15.00000000000000000, 1000.000000000000000 ) ) ;
#348 = EDGE_CURVE ( 'NONE', #34, #253, #24, .T. ) ;
#349 = AXIS2_PLACEMENT_3D ( 'NONE', #351, #171, #231 ) ;
#350 = DIRECTION ( 'NONE',  ( 1.000000000000000000, 0.000000000000000000, 0.000000000000000000 ) ) ;
#351 = CARTESIAN_POINT ( 'NONE',  ( -1.000000000000000000, 15.00000000000000000, 1000.000000000000000 ) ) ;
#352 = LINE ( 'NONE', #289, #306 ) ;
#353 = EDGE_CURVE ( 'NONE', #253, #218, #195, .T. ) ;
#354 = LINE ( 'NONE', #185, #288 ) ;
#355 = ORIENTED_EDGE ( 'NONE', *, *, #254, .F. ) ;
#356 = CARTESIAN_POINT ( 'NONE',  ( 1.000000000000000000, 2.000000000000000000, 0.000000000000000000 ) ) ;
#357 = CARTESIAN_POINT ( 'NONE',  ( -1.000000000000000000, 15.00000000000000000, 1000.000000000000000 ) ) ;
#358 = EDGE_CURVE ( 'NONE', #198, #98, #22, .T. ) ;
#359 = CARTESIAN_POINT ( 'NONE',  ( 1.000000000000000000, 2.000000000000000000, 1000.000000000000000 ) ) ;
#360 = AXIS2_PLACEMENT_3D ( 'NONE', #162, #279, #142 ) ;
#361 = CARTESIAN_POINT ( 'NONE',  ( -0.9999999999999995559, 2.000000000000000000, 1000.000000000000000 ) ) ;
#362 =( LENGTH_UNIT ( ) NAMED_UNIT ( * ) SI_UNIT ( .MILLI., .METRE. ) );
#363 = EDGE_CURVE ( 'NONE', #65, #266, #104, .T. ) ;
#364 = LINE ( 'NONE', #252, #197 ) ;
#365 = ORIENTED_EDGE ( 'NONE', *, *, #298, .T. ) ;
#366 = EDGE_CURVE ( 'NONE', #23, #173, #110, .T. ) ;
#367 = AXIS2_PLACEMENT_3D ( 'NONE', #68, #331, #187 ) ;
#368 = ORIENTED_EDGE ( 'NONE', *, *, #191, .T. ) ;
#369 = CARTESIAN_POINT ( 'NONE',  ( 0.000000000000000000, 0.000000000000000000, 0.000000000000000000 ) ) ;
#370 = ORIENTED_EDGE ( 'NONE', *, *, #216, .T. ) ;
#371 = NEXT_ASSEMBLY_USAGE_OCCURRENCE ( 'NAUO1', ' ', ' ', #122, #199, $ ) ;
ENDSEC;
END-ISO-10303-21;
