ISO-10303-21;
HEADER;
FILE_DESCRIPTION (( 'STEP AP214' ),
    '1' );
FILE_NAME ('B990 Êîðîòêèé àëþìèíèåâûé óïîð äëÿ ïîçèöèöèîíèðîâàíèÿ.STEP',
    '2026-03-27T12:13:29',
    ( '' ),
    ( '' ),
    'SwSTEP 2.0',
    'SolidWorks 2026',
    '' );
FILE_SCHEMA (( 'AUTOMOTIVE_DESIGN' ));
ENDSEC;

DATA;
#1 = EDGE_CURVE ( 'NONE', #353, #374, #195, .T. ) ;
#2 = EDGE_CURVE ( 'NONE', #50, #202, #396, .T. ) ;
#3 = SHAPE_DEFINITION_REPRESENTATION ( #237, #359 ) ;
#4 = CIRCLE ( 'NONE', #189, 7.000000000000000888 ) ;
#5 = DIRECTION ( 'NONE',  ( -0.000000000000000000, -0.000000000000000000, 1.000000000000000000 ) ) ;
#6 = FACE_OUTER_BOUND ( 'NONE', #16, .T. ) ;
#7 = FILL_AREA_STYLE_COLOUR ( '', #321 ) ;
#8 = ADVANCED_FACE ( 'NONE', ( #233 ), #227, .F. ) ;
#9 = EDGE_LOOP ( 'NONE', ( #109, #19, #335, #164, #74, #344 ) ) ;
#10 = VECTOR ( 'NONE', #337, 1000.000000000000000 ) ;
#11 = SURFACE_STYLE_FILL_AREA ( #235 ) ;
#12 = AXIS2_PLACEMENT_3D ( 'NONE', #130, #319, #215 ) ;
#13 = ORIENTED_EDGE ( 'NONE', *, *, #44, .F. ) ;
#14 = DIRECTION ( 'NONE',  ( -0.000000000000000000, 0.000000000000000000, 1.000000000000000000 ) ) ;
#15 = ORIENTED_EDGE ( 'NONE', *, *, #265, .F. ) ;
#16 = EDGE_LOOP ( 'NONE', ( #281, #302, #234, #300 ) ) ;
#17 = EDGE_CURVE ( 'NONE', #367, #397, #271, .T. ) ;
#18 = DIRECTION ( 'NONE',  ( 0.000000000000000000, 0.000000000000000000, 1.000000000000000000 ) ) ;
#19 = ORIENTED_EDGE ( 'NONE', *, *, #294, .F. ) ;
#20 = AXIS2_PLACEMENT_3D ( 'NONE', #239, #311, #375 ) ;
#21 = CARTESIAN_POINT ( 'NONE',  ( 25.00000000000000000, 0.000000000000000000, -5.000000000000000000 ) ) ;
#22 = ORIENTED_EDGE ( 'NONE', *, *, #137, .T. ) ;
#23 = ORIENTED_EDGE ( 'NONE', *, *, #280, .F. ) ;
#24 = CARTESIAN_POINT ( 'NONE',  ( 0.000000000000000000, 16.00000000000000000, 5.000000000000000000 ) ) ;
#25 = DIRECTION ( 'NONE',  ( -0.7071067811865480168, -0.7071067811865470176, 0.000000000000000000 ) ) ;
#26 = DIRECTION ( 'NONE',  ( 0.000000000000000000, 0.000000000000000000, 1.000000000000000000 ) ) ;
#27 = LINE ( 'NONE', #119, #98 ) ;
#28 = EDGE_CURVE ( 'NONE', #397, #353, #46, .T. ) ;
#29 = VERTEX_POINT ( 'NONE', #99 ) ;
#30 = CARTESIAN_POINT ( 'NONE',  ( 21.00000000000000355, 19.99999999999999645, -5.000000000000000000 ) ) ;
#31 = CARTESIAN_POINT ( 'NONE',  ( 0.000000000000000000, 0.000000000000000000, 5.000000000000000000 ) ) ;
#32 = VECTOR ( 'NONE', #355, 1000.000000000000000 ) ;
#33 = VECTOR ( 'NONE', #249, 1000.000000000000000 ) ;
#34 = DIRECTION ( 'NONE',  ( -1.000000000000000000, 0.000000000000000000, 0.000000000000000000 ) ) ;
#35 = VECTOR ( 'NONE', #389, 1000.000000000000000 ) ;
#36 = LINE ( 'NONE', #128, #196 ) ;
#37 = AXIS2_PLACEMENT_3D ( 'NONE', #157, #291, #148 ) ;
#38 = ADVANCED_FACE ( 'NONE', ( #70, #133 ), #102, .T. ) ;
#39 = VERTEX_POINT ( 'NONE', #60 ) ;
#40 = DIRECTION ( 'NONE',  ( -0.000000000000000000, -0.000000000000000000, 1.000000000000000000 ) ) ;
#41 = EDGE_LOOP ( 'NONE', ( #162, #377, #231, #198 ) ) ;
#42 = VECTOR ( 'NONE', #376, 1000.000000000000000 ) ;
#43 = CARTESIAN_POINT ( 'NONE',  ( 12.50000000000000178, 9.750000000000000000, 2.000000000000000000 ) ) ;
#44 = EDGE_CURVE ( 'NONE', #222, #50, #190, .T. ) ;
#45 = CIRCLE ( 'NONE', #345, 3.250000000000001332 ) ;
#46 = LINE ( 'NONE', #158, #35 ) ;
#47 = ORIENTED_EDGE ( 'NONE', *, *, #143, .T. ) ;
#48 = CARTESIAN_POINT ( 'NONE',  ( 21.00000000000000355, 19.99999999999999645, 5.000000000000000000 ) ) ;
#49 = DIRECTION ( 'NONE',  ( 1.000000000000000000, 0.000000000000000000, 0.000000000000000000 ) ) ;
#50 = VERTEX_POINT ( 'NONE', #127 ) ;
#51 =( NAMED_UNIT ( * ) SI_UNIT ( $, .STERADIAN. ) SOLID_ANGLE_UNIT ( ) );
#52 = CYLINDRICAL_SURFACE ( 'NONE', #356, 3.250000000000002665 ) ;
#53 = CARTESIAN_POINT ( 'NONE',  ( 25.00000000000000000, 0.000000000000000000, 5.000000000000000000 ) ) ;
#54 = AXIS2_PLACEMENT_3D ( 'NONE', #43, #40, #138 ) ;
#55 = CARTESIAN_POINT ( 'NONE',  ( 25.00000000000000000, 0.000000000000000000, 5.000000000000000000 ) ) ;
#56 = CARTESIAN_POINT ( 'NONE',  ( 25.00000000000000000, 0.000000000000000000, -5.000000000000000000 ) ) ;
#57 = ADVANCED_FACE ( 'NONE', ( #87 ), #52, .F. ) ;
#58 = DIRECTION ( 'NONE',  ( 0.000000000000000000, 1.000000000000000000, 0.000000000000000000 ) ) ;
#59 = PLANE ( 'NONE',  #37 ) ;
#60 = CARTESIAN_POINT ( 'NONE',  ( 25.00000000000000000, 16.00000000000000000, 5.000000000000000000 ) ) ;
#61 = LINE ( 'NONE', #351, #256 ) ;
#62 = VECTOR ( 'NONE', #150, 1000.000000000000000 ) ;
#63 =( NAMED_UNIT ( * ) PLANE_ANGLE_UNIT ( ) SI_UNIT ( $, .RADIAN. ) );
#64 = AXIS2_PLACEMENT_3D ( 'NONE', #82, #325, #194 ) ;
#65 = DIRECTION ( 'NONE',  ( -0.7071067811865474617, 0.7071067811865474617, -0.000000000000000000 ) ) ;
#66 = EDGE_CURVE ( 'NONE', #202, #334, #144, .T. ) ;
#67 = FACE_OUTER_BOUND ( 'NONE', #364, .T. ) ;
#68 = EDGE_CURVE ( 'NONE', #334, #202, #45, .T. ) ;
#69 = EDGE_CURVE ( 'NONE', #230, #39, #343, .T. ) ;
#70 = FACE_BOUND ( 'NONE', #79, .T. ) ;
#71 = ORIENTED_EDGE ( 'NONE', *, *, #265, .T. ) ;
#72 = DIRECTION ( 'NONE',  ( 1.000000000000000000, 0.000000000000000000, -0.000000000000000000 ) ) ;
#73 = CARTESIAN_POINT ( 'NONE',  ( 12.50000000000000178, 9.750000000000000000, 2.000000000000000000 ) ) ;
#74 = ORIENTED_EDGE ( 'NONE', *, *, #184, .F. ) ;
#75 = EDGE_CURVE ( 'NONE', #29, #391, #178, .T. ) ;
#76 = FACE_OUTER_BOUND ( 'NONE', #85, .T. ) ;
#77 = CARTESIAN_POINT ( 'NONE',  ( 15.75000000000000355, 9.750000000000000000, 5.000000000000000000 ) ) ;
#78 = ORIENTED_EDGE ( 'NONE', *, *, #28, .T. ) ;
#79 = EDGE_LOOP ( 'NONE', ( #13, #89 ) ) ;
#80 = VECTOR ( 'NONE', #279, 1000.000000000000000 ) ;
#81 = EDGE_LOOP ( 'NONE', ( #120, #100, #200, #113 ) ) ;
#82 = CARTESIAN_POINT ( 'NONE',  ( 12.50000000000000178, 9.750000000000000000, 5.000000000000000000 ) ) ;
#83 = DIRECTION ( 'NONE',  ( -0.000000000000000000, -0.000000000000000000, 1.000000000000000000 ) ) ;
#84 = EDGE_LOOP ( 'NONE', ( #368, #136, #296, #348 ) ) ;
#85 = EDGE_LOOP ( 'NONE', ( #273, #225, #238, #362 ) ) ;
#86 = CARTESIAN_POINT ( 'NONE',  ( 4.000000000000001776, 19.99999999999999645, -5.000000000000000000 ) ) ;
#87 = FACE_OUTER_BOUND ( 'NONE', #146, .T. ) ;
#88 = AXIS2_PLACEMENT_3D ( 'NONE', #224, #298, #287 ) ;
#89 = ORIENTED_EDGE ( 'NONE', *, *, #293, .F. ) ;
#90 = FACE_BOUND ( 'NONE', #241, .T. ) ;
#91 = LINE ( 'NONE', #183, #80 ) ;
#92 = CARTESIAN_POINT ( 'NONE',  ( 4.000000000000001776, 19.99999999999999645, 5.000000000000000000 ) ) ;
#93 = VECTOR ( 'NONE', #232, 1000.000000000000000 ) ;
#94 =( LENGTH_UNIT ( ) NAMED_UNIT ( * ) SI_UNIT ( .MILLI., .METRE. ) );
#95 = CARTESIAN_POINT ( 'NONE',  ( 25.00000000000000000, 0.000000000000000000, 5.000000000000000000 ) ) ;
#96 = CIRCLE ( 'NONE', #155, 7.000000000000000888 ) ;
#97 = CARTESIAN_POINT ( 'NONE',  ( 0.000000000000000000, 0.000000000000000000, -5.000000000000000000 ) ) ;
#98 = VECTOR ( 'NONE', #115, 1000.000000000000000 ) ;
#99 = CARTESIAN_POINT ( 'NONE',  ( 4.000000000000001776, 19.99999999999999645, 5.000000000000000000 ) ) ;
#100 = ORIENTED_EDGE ( 'NONE', *, *, #2, .T. ) ;
#101 = CARTESIAN_POINT ( 'NONE',  ( 21.00000000000000355, 19.99999999999999645, 5.000000000000000000 ) ) ;
#102 = PLANE ( 'NONE',  #88 ) ;
#103 = ORIENTED_EDGE ( 'NONE', *, *, #69, .F. ) ;
#104 = LINE ( 'NONE', #101, #122 ) ;
#105 = EDGE_LOOP ( 'NONE', ( #329, #333, #103, #117 ) ) ;
#106 = EDGE_LOOP ( 'NONE', ( #277, #264, #199, #78 ) ) ;
#107 = EDGE_CURVE ( 'NONE', #222, #334, #309, .T. ) ;
#108 = DIRECTION ( 'NONE',  ( 1.000000000000000000, 0.000000000000000000, 0.000000000000000000 ) ) ;
#109 = ORIENTED_EDGE ( 'NONE', *, *, #258, .F. ) ;
#110 = APPLICATION_PROTOCOL_DEFINITION ( 'draft international standard', 'automotive_design', 1998, #257 ) ;
#111 = CARTESIAN_POINT ( 'NONE',  ( 21.00000000000000355, 19.99999999999999645, -5.000000000000000000 ) ) ;
#112 = ORIENTED_EDGE ( 'NONE', *, *, #143, .F. ) ;
#113 = ORIENTED_EDGE ( 'NONE', *, *, #107, .F. ) ;
#114 =( LENGTH_UNIT ( ) NAMED_UNIT ( * ) SI_UNIT ( .MILLI., .METRE. ) );
#115 = DIRECTION ( 'NONE',  ( -0.000000000000000000, -0.000000000000000000, -1.000000000000000000 ) ) ;
#116 = EDGE_CURVE ( 'NONE', #367, #147, #27, .T. ) ;
#117 = ORIENTED_EDGE ( 'NONE', *, *, #192, .T. ) ;
#118 = FACE_OUTER_BOUND ( 'NONE', #9, .T. ) ;
#119 = CARTESIAN_POINT ( 'NONE',  ( 0.000000000000000000, 16.00000000000000000, 5.000000000000000000 ) ) ;
#120 = ORIENTED_EDGE ( 'NONE', *, *, #44, .T. ) ;
#121 = DIRECTION ( 'NONE',  ( 1.000000000000000000, 0.000000000000000000, 0.000000000000000000 ) ) ;
#122 = VECTOR ( 'NONE', #275, 1000.000000000000000 ) ;
#123 = VECTOR ( 'NONE', #378, 1000.000000000000000 ) ;
#124 = LINE ( 'NONE', #173, #154 ) ;
#125 = AXIS2_PLACEMENT_3D ( 'NONE', #180, #211, #405 ) ;
#126 = ADVANCED_FACE ( 'NONE', ( #149 ), #210, .F. ) ;
#127 = CARTESIAN_POINT ( 'NONE',  ( 15.75000000000000355, 9.750000000000000000, 2.000000000000000000 ) ) ;
#128 = CARTESIAN_POINT ( 'NONE',  ( 5.500000000000000888, 9.750000000000000000, 2.000000000000000000 ) ) ;
#129 = EDGE_CURVE ( 'NONE', #261, #393, #347, .T. ) ;
#130 = CARTESIAN_POINT ( 'NONE',  ( 4.000000000000001776, 19.99999999999999645, 5.000000000000000000 ) ) ;
#131 = CARTESIAN_POINT ( 'NONE',  ( 12.50000000000000178, 9.750000000000000000, 2.000000000000000000 ) ) ;
#132 = CLOSED_SHELL ( 'NONE', ( #8, #250, #57, #244, #341, #214, #126, #327, #314, #370, #354, #251, #38 ) ) ;
#133 = FACE_OUTER_BOUND ( 'NONE', #361, .T. ) ;
#134 = EDGE_LOOP ( 'NONE', ( #160, #174, #330, #22, #205, #47 ) ) ;
#135 = CARTESIAN_POINT ( 'NONE',  ( 0.000000000000000000, 16.00000000000000000, 5.000000000000000000 ) ) ;
#136 = ORIENTED_EDGE ( 'NONE', *, *, #75, .F. ) ;
#137 = EDGE_CURVE ( 'NONE', #39, #191, #61, .T. ) ;
#138 = DIRECTION ( 'NONE',  ( 1.000000000000000000, 0.000000000000000000, 0.000000000000000000 ) ) ;
#139 = ORIENTED_EDGE ( 'NONE', *, *, #66, .F. ) ;
#140 = FACE_OUTER_BOUND ( 'NONE', #81, .T. ) ;
#141 = ORIENTED_EDGE ( 'NONE', *, *, #383, .T. ) ;
#142 = VECTOR ( 'NONE', #299, 1000.000000000000000 ) ;
#143 = EDGE_CURVE ( 'NONE', #29, #367, #124, .T. ) ;
#144 = CIRCLE ( 'NONE', #177, 3.250000000000001332 ) ;
#145 = CARTESIAN_POINT ( 'NONE',  ( 12.50000000000000178, 9.750000000000000000, -5.000000000000000000 ) ) ;
#146 = EDGE_LOOP ( 'NONE', ( #322, #166, #339, #139 ) ) ;
#147 = VERTEX_POINT ( 'NONE', #247 ) ;
#148 = DIRECTION ( 'NONE',  ( 0.000000000000000000, -0.000000000000000000, -1.000000000000000000 ) ) ;
#149 = FACE_OUTER_BOUND ( 'NONE', #106, .T. ) ;
#150 = DIRECTION ( 'NONE',  ( -0.7071067811865480168, -0.7071067811865470176, 0.000000000000000000 ) ) ;
#151 = DIRECTION ( 'NONE',  ( -0.000000000000000000, -0.000000000000000000, -1.000000000000000000 ) ) ;
#152 = DIRECTION ( 'NONE',  ( -0.000000000000000000, 0.000000000000000000, 1.000000000000000000 ) ) ;
#153 = CARTESIAN_POINT ( 'NONE',  ( 21.00000000000000355, 19.99999999999999645, 5.000000000000000000 ) ) ;
#154 = VECTOR ( 'NONE', #25, 1000.000000000000000 ) ;
#155 = AXIS2_PLACEMENT_3D ( 'NONE', #181, #289, #121 ) ;
#156 = PLANE ( 'NONE',  #12 ) ;
#157 = CARTESIAN_POINT ( 'NONE',  ( 21.00000000000000355, 19.99999999999999645, 5.000000000000000000 ) ) ;
#158 = CARTESIAN_POINT ( 'NONE',  ( 0.000000000000000000, 0.000000000000000000, 5.000000000000000000 ) ) ;
#159 = CARTESIAN_POINT ( 'NONE',  ( 0.000000000000000000, 0.000000000000000000, -5.000000000000000000 ) ) ;
#160 = ORIENTED_EDGE ( 'NONE', *, *, #17, .T. ) ;
#161 = CARTESIAN_POINT ( 'NONE',  ( 0.000000000000000000, 16.00000000000000000, -5.000000000000000000 ) ) ;
#162 = ORIENTED_EDGE ( 'NONE', *, *, #258, .T. ) ;
#163 = MECHANICAL_DESIGN_GEOMETRIC_PRESENTATION_REPRESENTATION (  '', ( #243 ), #216 ) ;
#164 = ORIENTED_EDGE ( 'NONE', *, *, #288, .F. ) ;
#165 = FACE_OUTER_BOUND ( 'NONE', #41, .T. ) ;
#166 = ORIENTED_EDGE ( 'NONE', *, *, #293, .T. ) ;
#167 = VERTEX_POINT ( 'NONE', #380 ) ;
#168 = DIRECTION ( 'NONE',  ( 1.000000000000000000, 0.000000000000000000, 0.000000000000000000 ) ) ;
#169 = ORIENTED_EDGE ( 'NONE', *, *, #294, .T. ) ;
#170 = PRODUCT ( 'B990 \X2\041a043e0440043e0442043a04380439\X0\ \X2\0430043b044e043c0438043d043804350432044b0439\X0\ \X2\0443043f043e0440\X0\ \X2\0434043b044f\X0\ \X2\043f043e043704380446043804460438043e043d04380440043e04320430043d0438044f\X0\', 'B990 \X2\041a043e0440043e0442043a04380439\X0\ \X2\0430043b044e043c0438043d043804350432044b0439\X0\ \X2\0443043f043e0440\X0\ \X2\0434043b044f\X0\ \X2\043f043e043704380446043804460438043e043d04380440043e04320430043d0438044f\X0\', '', ( #269 ) ) ;
#171 = ORIENTED_EDGE ( 'NONE', *, *, #75, .T. ) ;
#172 = CARTESIAN_POINT ( 'NONE',  ( 0.000000000000000000, 0.000000000000000000, 5.000000000000000000 ) ) ;
#173 = CARTESIAN_POINT ( 'NONE',  ( 4.000000000000001776, 19.99999999999999645, 5.000000000000000000 ) ) ;
#174 = ORIENTED_EDGE ( 'NONE', *, *, #365, .T. ) ;
#175 = CIRCLE ( 'NONE', #406, 7.000000000000000888 ) ;
#176 = CYLINDRICAL_SURFACE ( 'NONE', #54, 7.000000000000000888 ) ;
#177 = AXIS2_PLACEMENT_3D ( 'NONE', #276, #352, #399 ) ;
#178 = LINE ( 'NONE', #92, #42 ) ;
#179 = CARTESIAN_POINT ( 'NONE',  ( 0.000000000000000000, 0.000000000000000000, 5.000000000000000000 ) ) ;
#180 = CARTESIAN_POINT ( 'NONE',  ( 12.50000000000000178, 9.750000000000000000, 2.000000000000000000 ) ) ;
#181 = CARTESIAN_POINT ( 'NONE',  ( 12.50000000000000178, 9.750000000000000000, 5.000000000000000000 ) ) ;
#182 = DIRECTION ( 'NONE',  ( 0.000000000000000000, 0.000000000000000000, 1.000000000000000000 ) ) ;
#183 = CARTESIAN_POINT ( 'NONE',  ( 25.00000000000000000, 0.000000000000000000, 5.000000000000000000 ) ) ;
#184 = EDGE_CURVE ( 'NONE', #374, #220, #304, .T. ) ;
#185 = AXIS2_PLACEMENT_3D ( 'NONE', #382, #182, #312 ) ;
#186 = PRESENTATION_LAYER_ASSIGNMENT (  '', '', ( #243 ) ) ;
#187 = FACE_OUTER_BOUND ( 'NONE', #84, .T. ) ;
#188 = UNCERTAINTY_MEASURE_WITH_UNIT (LENGTH_MEASURE( 1.000000000000000082E-05 ), #94, 'distance_accuracy_value', 'NONE');
#189 = AXIS2_PLACEMENT_3D ( 'NONE', #229, #18, #303 ) ;
#190 = CIRCLE ( 'NONE', #125, 3.250000000000001332 ) ;
#191 = VERTEX_POINT ( 'NONE', #153 ) ;
#192 = EDGE_CURVE ( 'NONE', #230, #374, #91, .T. ) ;
#193 = ORIENTED_EDGE ( 'NONE', *, *, #340, .T. ) ;
#194 = DIRECTION ( 'NONE',  ( -1.000000000000000000, 0.000000000000000000, 0.000000000000000000 ) ) ;
#195 = LINE ( 'NONE', #159, #292 ) ;
#196 = VECTOR ( 'NONE', #5, 1000.000000000000000 ) ;
#197 = DIRECTION ( 'NONE',  ( -1.000000000000000000, 0.000000000000000000, 0.000000000000000000 ) ) ;
#198 = ORIENTED_EDGE ( 'NONE', *, *, #116, .T. ) ;
#199 = ORIENTED_EDGE ( 'NONE', *, *, #365, .F. ) ;
#200 = ORIENTED_EDGE ( 'NONE', *, *, #68, .F. ) ;
#201 = DIRECTION ( 'NONE',  ( 1.000000000000000000, 0.000000000000000000, 0.000000000000000000 ) ) ;
#202 = VERTEX_POINT ( 'NONE', #402 ) ;
#203 = CARTESIAN_POINT ( 'NONE',  ( 9.250000000000000000, 9.750000000000000000, 2.000000000000000000 ) ) ;
#204 = CARTESIAN_POINT ( 'NONE',  ( 12.50000000000000178, 9.750000000000000000, 5.000000000000000000 ) ) ;
#205 = ORIENTED_EDGE ( 'NONE', *, *, #221, .T. ) ;
#206 = DIRECTION ( 'NONE',  ( -0.7071067811865475727, -0.7071067811865475727, 0.000000000000000000 ) ) ;
#207 = DIRECTION ( 'NONE',  ( -0.000000000000000000, -0.000000000000000000, -1.000000000000000000 ) ) ;
#208 = EDGE_LOOP ( 'NONE', ( #23, #193, #71, #310 ) ) ;
#209 = PLANE ( 'NONE',  #395 ) ;
#210 = PLANE ( 'NONE',  #331 ) ;
#211 = DIRECTION ( 'NONE',  ( 0.000000000000000000, 0.000000000000000000, 1.000000000000000000 ) ) ;
#212 = APPLICATION_CONTEXT ( 'automotive_design' ) ;
#213 = EDGE_CURVE ( 'NONE', #191, #260, #104, .T. ) ;
#214 = ADVANCED_FACE ( 'NONE', ( #165 ), #394, .F. ) ;
#215 = DIRECTION ( 'NONE',  ( 0.7071067811865480168, 0.7071067811865470176, 0.000000000000000000 ) ) ;
#216 =( GEOMETRIC_REPRESENTATION_CONTEXT ( 3 ) GLOBAL_UNCERTAINTY_ASSIGNED_CONTEXT ( ( #360 ) ) GLOBAL_UNIT_ASSIGNED_CONTEXT ( ( #114, #371, #51 ) ) REPRESENTATION_CONTEXT ( 'NONE', 'WORKASPACE' ) );
#217 = CARTESIAN_POINT ( 'NONE',  ( 0.000000000000000000, 0.000000000000000000, 5.000000000000000000 ) ) ;
#218 = MANIFOLD_SOLID_BREP ( '\X2\0412044b044004350437\X0\-\X2\0412044b0442044f043d04430442044c\X0\1', #132 ) ;
#219 = VECTOR ( 'NONE', #65, 1000.000000000000114 ) ;
#220 = VERTEX_POINT ( 'NONE', #266 ) ;
#221 = EDGE_CURVE ( 'NONE', #191, #29, #323, .T. ) ;
#222 = VERTEX_POINT ( 'NONE', #203 ) ;
#223 = EDGE_CURVE ( 'NONE', #260, #391, #259, .T. ) ;
#224 = CARTESIAN_POINT ( 'NONE',  ( 12.50000000000000178, 9.750000000000000000, 2.000000000000000000 ) ) ;
#225 = ORIENTED_EDGE ( 'NONE', *, *, #383, .F. ) ;
#226 = DIRECTION ( 'NONE',  ( -0.000000000000000000, 0.000000000000000000, -1.000000000000000000 ) ) ;
#227 = CYLINDRICAL_SURFACE ( 'NONE', #262, 7.000000000000000888 ) ;
#228 = PRODUCT_RELATED_PRODUCT_CATEGORY ( 'part', '', ( #170 ) ) ;
#229 = CARTESIAN_POINT ( 'NONE',  ( 12.50000000000000178, 9.750000000000000000, 2.000000000000000000 ) ) ;
#230 = VERTEX_POINT ( 'NONE', #53 ) ;
#231 = ORIENTED_EDGE ( 'NONE', *, *, #17, .F. ) ;
#232 = DIRECTION ( 'NONE',  ( -1.000000000000000000, 0.000000000000000000, 0.000000000000000000 ) ) ;
#233 = FACE_OUTER_BOUND ( 'NONE', #208, .T. ) ;
#234 = ORIENTED_EDGE ( 'NONE', *, *, #137, .F. ) ;
#235 = FILL_AREA_STYLE ('',( #7 ) ) ;
#236 = DIRECTION ( 'NONE',  ( 1.000000000000000000, 0.000000000000000000, 0.000000000000000000 ) ) ;
#237 = PRODUCT_DEFINITION_SHAPE ( 'NONE', 'NONE',  #350 ) ;
#238 = ORIENTED_EDGE ( 'NONE', *, *, #129, .T. ) ;
#239 = CARTESIAN_POINT ( 'NONE',  ( 12.50000000000000178, 9.750000000000000000, 2.000000000000000000 ) ) ;
#240 = CARTESIAN_POINT ( 'NONE',  ( 19.50000000000000355, 9.750000000000000000, 2.000000000000000000 ) ) ;
#241 = EDGE_LOOP ( 'NONE', ( #324, #338 ) ) ;
#242 = EDGE_LOOP ( 'NONE', ( #390, #15 ) ) ;
#243 = STYLED_ITEM ( 'NONE', ( #369 ), #218 ) ;
#244 = ADVANCED_FACE ( 'NONE', ( #366, #336 ), #342, .T. ) ;
#245 = CARTESIAN_POINT ( 'NONE',  ( 21.00000000000000355, 19.99999999999999645, 5.000000000000000000 ) ) ;
#246 = VECTOR ( 'NONE', #207, 1000.000000000000000 ) ;
#247 = CARTESIAN_POINT ( 'NONE',  ( 0.000000000000000000, 16.00000000000000000, -5.000000000000000000 ) ) ;
#248 = APPLICATION_PROTOCOL_DEFINITION ( 'draft international standard', 'automotive_design', 1998, #212 ) ;
#249 = DIRECTION ( 'NONE',  ( 0.000000000000000000, 1.000000000000000000, 0.000000000000000000 ) ) ;
#250 = ADVANCED_FACE ( 'NONE', ( #140 ), #270, .F. ) ;
#251 = ADVANCED_FACE ( 'NONE', ( #76 ), #176, .F. ) ;
#252 = AXIS2_PLACEMENT_3D ( 'NONE', #245, #206, #253 ) ;
#253 = DIRECTION ( 'NONE',  ( 0.7071067811865474617, -0.7071067811865474617, 0.000000000000000000 ) ) ;
#254 = PLANE ( 'NONE',  #326 ) ;
#255 = PLANE ( 'NONE',  #252 ) ;
#256 = VECTOR ( 'NONE', #283, 1000.000000000000114 ) ;
#257 = APPLICATION_CONTEXT ( 'automotive_design' ) ;
#258 = EDGE_CURVE ( 'NONE', #147, #353, #363, .T. ) ;
#259 = LINE ( 'NONE', #111, #93 ) ;
#260 = VERTEX_POINT ( 'NONE', #297 ) ;
#261 = VERTEX_POINT ( 'NONE', #301 ) ;
#262 = AXIS2_PLACEMENT_3D ( 'NONE', #73, #295, #49 ) ;
#263 = SURFACE_SIDE_STYLE ('',( #11 ) ) ;
#264 = ORIENTED_EDGE ( 'NONE', *, *, #192, .F. ) ;
#265 = EDGE_CURVE ( 'NONE', #403, #393, #175, .T. ) ;
#266 = CARTESIAN_POINT ( 'NONE',  ( 25.00000000000000000, 16.00000000000000000, -5.000000000000000000 ) ) ;
#267 = DIRECTION ( 'NONE',  ( -0.000000000000000000, -0.000000000000000000, -1.000000000000000000 ) ) ;
#268 = ORIENTED_EDGE ( 'NONE', *, *, #116, .F. ) ;
#269 = PRODUCT_CONTEXT ( 'NONE', #212, 'mechanical' ) ;
#270 = CYLINDRICAL_SURFACE ( 'NONE', #64, 3.250000000000002665 ) ;
#271 = LINE ( 'NONE', #328, #10 ) ;
#272 =( GEOMETRIC_REPRESENTATION_CONTEXT ( 3 ) GLOBAL_UNCERTAINTY_ASSIGNED_CONTEXT ( ( #188 ) ) GLOBAL_UNIT_ASSIGNED_CONTEXT ( ( #94, #63, #373 ) ) REPRESENTATION_CONTEXT ( 'NONE', 'WORKASPACE' ) );
#273 = ORIENTED_EDGE ( 'NONE', *, *, #340, .F. ) ;
#274 = AXIS2_PLACEMENT_3D ( 'NONE', #135, #72, #226 ) ;
#275 = DIRECTION ( 'NONE',  ( -0.000000000000000000, -0.000000000000000000, -1.000000000000000000 ) ) ;
#276 = CARTESIAN_POINT ( 'NONE',  ( 12.50000000000000178, 9.750000000000000000, -5.000000000000000000 ) ) ;
#277 = ORIENTED_EDGE ( 'NONE', *, *, #1, .T. ) ;
#278 = CARTESIAN_POINT ( 'NONE',  ( 0.000000000000000000, 0.000000000000000000, -5.000000000000000000 ) ) ;
#279 = DIRECTION ( 'NONE',  ( -0.000000000000000000, -0.000000000000000000, -1.000000000000000000 ) ) ;
#280 = EDGE_CURVE ( 'NONE', #167, #261, #4, .T. ) ;
#281 = ORIENTED_EDGE ( 'NONE', *, *, #288, .T. ) ;
#282 = CARTESIAN_POINT ( 'NONE',  ( 19.50000000000000355, 9.750000000000000000, 5.000000000000000000 ) ) ;
#283 = DIRECTION ( 'NONE',  ( -0.7071067811865474617, 0.7071067811865474617, -0.000000000000000000 ) ) ;
#284 = VECTOR ( 'NONE', #197, 1000.000000000000000 ) ;
#285 = CIRCLE ( 'NONE', #357, 3.250000000000001332 ) ;
#286 = CARTESIAN_POINT ( 'NONE',  ( 5.500000000000000888, 9.750000000000000000, 5.000000000000000000 ) ) ;
#287 = DIRECTION ( 'NONE',  ( 1.000000000000000000, 0.000000000000000000, -0.000000000000000000 ) ) ;
#288 = EDGE_CURVE ( 'NONE', #220, #260, #398, .T. ) ;
#289 = DIRECTION ( 'NONE',  ( 0.000000000000000000, 0.000000000000000000, 1.000000000000000000 ) ) ;
#290 = EDGE_CURVE ( 'NONE', #39, #220, #401, .T. ) ;
#291 = DIRECTION ( 'NONE',  ( 0.000000000000000000, -1.000000000000000000, 0.000000000000000000 ) ) ;
#292 = VECTOR ( 'NONE', #201, 1000.000000000000000 ) ;
#293 = EDGE_CURVE ( 'NONE', #50, #222, #285, .T. ) ;
#294 = EDGE_CURVE ( 'NONE', #391, #147, #358, .T. ) ;
#295 = DIRECTION ( 'NONE',  ( -0.000000000000000000, -0.000000000000000000, 1.000000000000000000 ) ) ;
#296 = ORIENTED_EDGE ( 'NONE', *, *, #221, .F. ) ;
#297 = CARTESIAN_POINT ( 'NONE',  ( 21.00000000000000355, 19.99999999999999645, -5.000000000000000000 ) ) ;
#298 = DIRECTION ( 'NONE',  ( 0.000000000000000000, 0.000000000000000000, 1.000000000000000000 ) ) ;
#299 = DIRECTION ( 'NONE',  ( 0.000000000000000000, -1.000000000000000000, 0.000000000000000000 ) ) ;
#300 = ORIENTED_EDGE ( 'NONE', *, *, #290, .T. ) ;
#301 = CARTESIAN_POINT ( 'NONE',  ( 19.50000000000000355, 9.750000000000000000, 2.000000000000000000 ) ) ;
#302 = ORIENTED_EDGE ( 'NONE', *, *, #213, .F. ) ;
#303 = DIRECTION ( 'NONE',  ( 1.000000000000000000, 0.000000000000000000, 0.000000000000000000 ) ) ;
#304 = LINE ( 'NONE', #21, #386 ) ;
#305 = CARTESIAN_POINT ( 'NONE',  ( 4.000000000000001776, 19.99999999999999645, -5.000000000000000000 ) ) ;
#306 = EDGE_CURVE ( 'NONE', #393, #403, #96, .T. ) ;
#307 = CARTESIAN_POINT ( 'NONE',  ( 9.250000000000000000, 9.750000000000000000, 5.000000000000000000 ) ) ;
#308 = DIRECTION ( 'NONE',  ( 1.000000000000000000, 0.000000000000000000, 0.000000000000000000 ) ) ;
#309 = LINE ( 'NONE', #307, #246 ) ;
#310 = ORIENTED_EDGE ( 'NONE', *, *, #129, .F. ) ;
#311 = DIRECTION ( 'NONE',  ( 0.000000000000000000, 0.000000000000000000, 1.000000000000000000 ) ) ;
#312 = DIRECTION ( 'NONE',  ( 1.000000000000000000, 0.000000000000000000, 0.000000000000000000 ) ) ;
#313 = DIRECTION ( 'NONE',  ( 0.000000000000000000, 0.000000000000000000, 1.000000000000000000 ) ) ;
#314 = ADVANCED_FACE ( 'NONE', ( #6 ), #255, .F. ) ;
#315 = PRODUCT_DEFINITION_FORMATION_WITH_SPECIFIED_SOURCE ( 'ANY', '', #170, .NOT_KNOWN. ) ;
#316 = VECTOR ( 'NONE', #267, 1000.000000000000000 ) ;
#317 = DIRECTION ( 'NONE',  ( 0.000000000000000000, 0.000000000000000000, 1.000000000000000000 ) ) ;
#318 = VECTOR ( 'NONE', #83, 1000.000000000000000 ) ;
#319 = DIRECTION ( 'NONE',  ( 0.7071067811865470176, -0.7071067811865480168, 0.000000000000000000 ) ) ;
#320 = PRODUCT_DEFINITION_CONTEXT ( 'detailed design', #257, 'design' ) ;
#321 = COLOUR_RGB ( '',0.7921568627450980005, 0.8196078431372548767, 0.9333333333333333481 ) ;
#322 = ORIENTED_EDGE ( 'NONE', *, *, #2, .F. ) ;
#323 = LINE ( 'NONE', #48, #284 ) ;
#324 = ORIENTED_EDGE ( 'NONE', *, *, #68, .T. ) ;
#325 = DIRECTION ( 'NONE',  ( -0.000000000000000000, -0.000000000000000000, -1.000000000000000000 ) ) ;
#326 = AXIS2_PLACEMENT_3D ( 'NONE', #97, #152, #349 ) ;
#327 = ADVANCED_FACE ( 'NONE', ( #384 ), #209, .F. ) ;
#328 = CARTESIAN_POINT ( 'NONE',  ( 0.000000000000000000, 16.00000000000000000, 5.000000000000000000 ) ) ;
#329 = ORIENTED_EDGE ( 'NONE', *, *, #184, .T. ) ;
#330 = ORIENTED_EDGE ( 'NONE', *, *, #69, .T. ) ;
#331 = AXIS2_PLACEMENT_3D ( 'NONE', #31, #58, #372 ) ;
#332 = SURFACE_STYLE_USAGE ( .BOTH. , #263 ) ;
#333 = ORIENTED_EDGE ( 'NONE', *, *, #290, .F. ) ;
#334 = VERTEX_POINT ( 'NONE', #385 ) ;
#335 = ORIENTED_EDGE ( 'NONE', *, *, #223, .F. ) ;
#336 = FACE_OUTER_BOUND ( 'NONE', #134, .T. ) ;
#337 = DIRECTION ( 'NONE',  ( 0.000000000000000000, -1.000000000000000000, 0.000000000000000000 ) ) ;
#338 = ORIENTED_EDGE ( 'NONE', *, *, #66, .T. ) ;
#339 = ORIENTED_EDGE ( 'NONE', *, *, #107, .T. ) ;
#340 = EDGE_CURVE ( 'NONE', #167, #403, #36, .T. ) ;
#341 = ADVANCED_FACE ( 'NONE', ( #118, #90 ), #254, .F. ) ;
#342 = PLANE ( 'NONE',  #381 ) ;
#343 = LINE ( 'NONE', #55, #33 ) ;
#344 = ORIENTED_EDGE ( 'NONE', *, *, #1, .F. ) ;
#345 = AXIS2_PLACEMENT_3D ( 'NONE', #145, #313, #236 ) ;
#346 = LINE ( 'NONE', #217, #32 ) ;
#347 = LINE ( 'NONE', #240, #318 ) ;
#348 = ORIENTED_EDGE ( 'NONE', *, *, #213, .T. ) ;
#349 = DIRECTION ( 'NONE',  ( 1.000000000000000000, 0.000000000000000000, 0.000000000000000000 ) ) ;
#350 = PRODUCT_DEFINITION ( 'UNKNOWN', '', #315, #320 ) ;
#351 = CARTESIAN_POINT ( 'NONE',  ( 21.00000000000000355, 19.99999999999999645, 5.000000000000000000 ) ) ;
#352 = DIRECTION ( 'NONE',  ( 0.000000000000000000, 0.000000000000000000, 1.000000000000000000 ) ) ;
#353 = VERTEX_POINT ( 'NONE', #278 ) ;
#354 = ADVANCED_FACE ( 'NONE', ( #67 ), #156, .F. ) ;
#355 = DIRECTION ( 'NONE',  ( 1.000000000000000000, 0.000000000000000000, 0.000000000000000000 ) ) ;
#356 = AXIS2_PLACEMENT_3D ( 'NONE', #204, #151, #407 ) ;
#357 = AXIS2_PLACEMENT_3D ( 'NONE', #131, #26, #308 ) ;
#358 = LINE ( 'NONE', #305, #62 ) ;
#359 = ADVANCED_BREP_SHAPE_REPRESENTATION ( 'B990 \X2\041a043e0440043e0442043a04380439\X0\ \X2\0430043b044e043c0438043d043804350432044b0439\X0\ \X2\0443043f043e0440\X0\ \X2\0434043b044f\X0\ \X2\043f043e043704380446043804460438043e043d04380440043e04320430043d0438044f\X0\', ( #218, #185 ), #272 ) ;
#360 = UNCERTAINTY_MEASURE_WITH_UNIT (LENGTH_MEASURE( 1.000000000000000082E-05 ), #114, 'distance_accuracy_value', 'NONE');
#361 = EDGE_LOOP ( 'NONE', ( #141, #400 ) ) ;
#362 = ORIENTED_EDGE ( 'NONE', *, *, #306, .T. ) ;
#363 = LINE ( 'NONE', #161, #142 ) ;
#364 = EDGE_LOOP ( 'NONE', ( #169, #268, #112, #171 ) ) ;
#365 = EDGE_CURVE ( 'NONE', #397, #230, #346, .T. ) ;
#366 = FACE_BOUND ( 'NONE', #242, .T. ) ;
#367 = VERTEX_POINT ( 'NONE', #24 ) ;
#368 = ORIENTED_EDGE ( 'NONE', *, *, #223, .T. ) ;
#369 = PRESENTATION_STYLE_ASSIGNMENT (( #332 ) ) ;
#370 = ADVANCED_FACE ( 'NONE', ( #187 ), #59, .F. ) ;
#371 =( NAMED_UNIT ( * ) PLANE_ANGLE_UNIT ( ) SI_UNIT ( $, .RADIAN. ) );
#372 = DIRECTION ( 'NONE',  ( 0.000000000000000000, -0.000000000000000000, 1.000000000000000000 ) ) ;
#373 =( NAMED_UNIT ( * ) SI_UNIT ( $, .STERADIAN. ) SOLID_ANGLE_UNIT ( ) );
#374 = VERTEX_POINT ( 'NONE', #56 ) ;
#375 = DIRECTION ( 'NONE',  ( 1.000000000000000000, 0.000000000000000000, 0.000000000000000000 ) ) ;
#376 = DIRECTION ( 'NONE',  ( -0.000000000000000000, -0.000000000000000000, -1.000000000000000000 ) ) ;
#377 = ORIENTED_EDGE ( 'NONE', *, *, #28, .F. ) ;
#378 = DIRECTION ( 'NONE',  ( -0.000000000000000000, -0.000000000000000000, -1.000000000000000000 ) ) ;
#379 = DIRECTION ( 'NONE',  ( 0.000000000000000000, 1.000000000000000000, 0.000000000000000000 ) ) ;
#380 = CARTESIAN_POINT ( 'NONE',  ( 5.500000000000000888, 9.750000000000000000, 2.000000000000000000 ) ) ;
#381 = AXIS2_PLACEMENT_3D ( 'NONE', #172, #14, #168 ) ;
#382 = CARTESIAN_POINT ( 'NONE',  ( 0.000000000000000000, 0.000000000000000000, 0.000000000000000000 ) ) ;
#383 = EDGE_CURVE ( 'NONE', #261, #167, #388, .T. ) ;
#384 = FACE_OUTER_BOUND ( 'NONE', #105, .T. ) ;
#385 = CARTESIAN_POINT ( 'NONE',  ( 9.250000000000000000, 9.750000000000000000, -5.000000000000000000 ) ) ;
#386 = VECTOR ( 'NONE', #379, 1000.000000000000000 ) ;
#387 = DIRECTION ( 'NONE',  ( 0.000000000000000000, 0.000000000000000000, 1.000000000000000000 ) ) ;
#388 = CIRCLE ( 'NONE', #20, 7.000000000000000888 ) ;
#389 = DIRECTION ( 'NONE',  ( -0.000000000000000000, -0.000000000000000000, -1.000000000000000000 ) ) ;
#390 = ORIENTED_EDGE ( 'NONE', *, *, #306, .F. ) ;
#391 = VERTEX_POINT ( 'NONE', #86 ) ;
#392 = CARTESIAN_POINT ( 'NONE',  ( 12.50000000000000178, 9.750000000000000000, 5.000000000000000000 ) ) ;
#393 = VERTEX_POINT ( 'NONE', #282 ) ;
#394 = PLANE ( 'NONE',  #274 ) ;
#395 = AXIS2_PLACEMENT_3D ( 'NONE', #95, #34, #317 ) ;
#396 = LINE ( 'NONE', #77, #316 ) ;
#397 = VERTEX_POINT ( 'NONE', #179 ) ;
#398 = LINE ( 'NONE', #30, #219 ) ;
#399 = DIRECTION ( 'NONE',  ( 1.000000000000000000, 0.000000000000000000, 0.000000000000000000 ) ) ;
#400 = ORIENTED_EDGE ( 'NONE', *, *, #280, .T. ) ;
#401 = LINE ( 'NONE', #404, #123 ) ;
#402 = CARTESIAN_POINT ( 'NONE',  ( 15.75000000000000355, 9.750000000000000000, -5.000000000000000000 ) ) ;
#403 = VERTEX_POINT ( 'NONE', #286 ) ;
#404 = CARTESIAN_POINT ( 'NONE',  ( 25.00000000000000000, 16.00000000000000000, 5.000000000000000000 ) ) ;
#405 = DIRECTION ( 'NONE',  ( 1.000000000000000000, 0.000000000000000000, 0.000000000000000000 ) ) ;
#406 = AXIS2_PLACEMENT_3D ( 'NONE', #392, #387, #108 ) ;
#407 = DIRECTION ( 'NONE',  ( -1.000000000000000000, 0.000000000000000000, 0.000000000000000000 ) ) ;
ENDSEC;
END-ISO-10303-21;
