ISO-10303-21;
HEADER;
FILE_DESCRIPTION (( 'STEP AP214' ),
    '1' );
FILE_NAME ('Ñáîðêà6.STEP',
    '2024-12-27T14:32:42',
    ( '' ),
    ( '' ),
    'SwSTEP 2.0',
    'SolidWorks 2024',
    '' );
FILE_SCHEMA (( 'AUTOMOTIVE_DESIGN' ));
ENDSEC;

DATA;
#1 = DIRECTION ( 'NONE',  ( 1.000000000000000000, 0.000000000000000000, 0.000000000000000000 ) ) ;
#2 = ORIENTED_EDGE ( 'NONE', *, *, #85, .F. ) ;
#3 = PRESENTATION_STYLE_ASSIGNMENT (( #37 ) ) ;
#4 = ORIENTED_EDGE ( 'NONE', *, *, #109, .F. ) ;
#5 = AXIS2_PLACEMENT_3D ( 'NONE', #94, #133, #220 ) ;
#6 = DIRECTION ( 'NONE',  ( -0.000000000000000000, -0.000000000000000000, -1.000000000000000000 ) ) ;
#7 = CARTESIAN_POINT ( 'NONE',  ( -4.000000000000000000, 0.000000000000000000, 10.00000000000000000 ) ) ;
#8 = EDGE_LOOP ( 'NONE', ( #351, #263, #48, #358 ) ) ;
#9 = AXIS2_PLACEMENT_3D ( 'NONE', #223, #132, #1 ) ;
#10 = EDGE_CURVE ( 'NONE', #230, #274, #111, .T. ) ;
#11 = AXIS2_PLACEMENT_3D ( 'NONE', #239, #267, #268 ) ;
#12 = ORIENTED_EDGE ( 'NONE', *, *, #378, .T. ) ;
#13 = EDGE_CURVE ( 'NONE', #250, #158, #138, .T. ) ;
#14 = DIRECTION ( 'NONE',  ( 0.000000000000000000, 0.000000000000000000, 1.000000000000000000 ) ) ;
#15 = ORIENTED_EDGE ( 'NONE', *, *, #10, .F. ) ;
#16 = FACE_OUTER_BOUND ( 'NONE', #8, .T. ) ;
#17 = EDGE_LOOP ( 'NONE', ( #160, #76, #142, #232 ) ) ;
#18 = CARTESIAN_POINT ( 'NONE',  ( -13.00000000000000178, 0.000000000000000000, 8.500000000000000000 ) ) ;
#19 = CARTESIAN_POINT ( 'NONE',  ( -13.00000000000000178, 0.000000000000000000, -8.500000000000000000 ) ) ;
#20 = VERTEX_POINT ( 'NONE', #18 ) ;
#21 = UNCERTAINTY_MEASURE_WITH_UNIT (LENGTH_MEASURE( 1.000000000000000082E-05 ), #347, 'distance_accuracy_value', 'NONE');
#22 = CARTESIAN_POINT ( 'NONE',  ( 4.000000000000000000, 4.898587196589412829E-16, -10.00000000000000000 ) ) ;
#23 = DIRECTION ( 'NONE',  ( 1.000000000000000000, 0.000000000000000000, 0.000000000000000000 ) ) ;
#24 = PRODUCT_DEFINITION_CONTEXT ( 'detailed design', #330, 'design' ) ;
#25 = ADVANCED_FACE ( 'NONE', ( #168, #287 ), #144, .T. ) ;
#26 = DIRECTION ( 'NONE',  ( 0.000000000000000000, 0.000000000000000000, 1.000000000000000000 ) ) ;
#27 = CARTESIAN_POINT ( 'NONE',  ( 13.00000000000000178, 1.592040838891559293E-15, 10.00000000000000000 ) ) ;
#28 = EDGE_CURVE ( 'NONE', #277, #234, #63, .T. ) ;
#29 =( NAMED_UNIT ( * ) SI_UNIT ( $, .STERADIAN. ) SOLID_ANGLE_UNIT ( ) );
#30 = CARTESIAN_POINT ( 'NONE',  ( 0.000000000000000000, 0.000000000000000000, 10.00000000000000000 ) ) ;
#31 = AXIS2_PLACEMENT_3D ( 'NONE', #180, #90, #176 ) ;
#32 = AXIS2_PLACEMENT_3D ( 'NONE', #261, #385, #283 ) ;
#33 = EDGE_CURVE ( 'NONE', #250, #311, #152, .T. ) ;
#34 = AXIS2_PLACEMENT_3D ( 'NONE', #151, #211, #302 ) ;
#35 = DIRECTION ( 'NONE',  ( 0.000000000000000000, 0.000000000000000000, 1.000000000000000000 ) ) ;
#36 = EDGE_LOOP ( 'NONE', ( #367, #306 ) ) ;
#37 = SURFACE_STYLE_USAGE ( .BOTH. , #341 ) ;
#38 = ORIENTED_EDGE ( 'NONE', *, *, #213, .T. ) ;
#39 = PRODUCT_DEFINITION_FORMATION_WITH_SPECIFIED_SOURCE ( 'ANY', '', #192, .NOT_KNOWN. ) ;
#40 = DIRECTION ( 'NONE',  ( -0.000000000000000000, -0.000000000000000000, -1.000000000000000000 ) ) ;
#41 = EDGE_LOOP ( 'NONE', ( #280, #207 ) ) ;
#42 = DIRECTION ( 'NONE',  ( 1.000000000000000000, 0.000000000000000000, 0.000000000000000000 ) ) ;
#43 = ORIENTED_EDGE ( 'NONE', *, *, #366, .F. ) ;
#44 = AXIS2_PLACEMENT_3D ( 'NONE', #364, #100, #279 ) ;
#45 = CLOSED_SHELL ( 'NONE', ( #289, #240, #270, #281, #54, #328, #166, #97, #246, #25, #72, #134 ) ) ;
#46 =( NAMED_UNIT ( * ) SI_UNIT ( $, .STERADIAN. ) SOLID_ANGLE_UNIT ( ) );
#47 = EDGE_LOOP ( 'NONE', ( #4, #189, #108, #324 ) ) ;
#48 = ORIENTED_EDGE ( 'NONE', *, *, #387, .F. ) ;
#49 = FACE_BOUND ( 'NONE', #36, .T. ) ;
#50 = DIRECTION ( 'NONE',  ( -0.000000000000000000, -0.000000000000000000, 1.000000000000000000 ) ) ;
#51 = CARTESIAN_POINT ( 'NONE',  ( 0.000000000000000000, 0.000000000000000000, 8.500000000000000000 ) ) ;
#52 = MECHANICAL_DESIGN_GEOMETRIC_PRESENTATION_REPRESENTATION (  '', ( #285 ), #303 ) ;
#53 = VERTEX_POINT ( 'NONE', #393 ) ;
#54 = ADVANCED_FACE ( 'NONE', ( #241 ), #390, .T. ) ;
#55 = FACE_OUTER_BOUND ( 'NONE', #352, .T. ) ;
#56 = EDGE_CURVE ( 'NONE', #20, #75, #375, .T. ) ;
#57 = DIRECTION ( 'NONE',  ( 0.000000000000000000, 0.000000000000000000, 1.000000000000000000 ) ) ;
#58 = DIRECTION ( 'NONE',  ( -0.000000000000000000, -0.000000000000000000, -1.000000000000000000 ) ) ;
#59 = EDGE_CURVE ( 'NONE', #137, #158, #143, .T. ) ;
#60 = PLANE ( 'NONE',  #31 ) ;
#61 = DIRECTION ( 'NONE',  ( 1.000000000000000000, 0.000000000000000000, 0.000000000000000000 ) ) ;
#62 = CARTESIAN_POINT ( 'NONE',  ( 0.000000000000000000, 0.000000000000000000, 8.500000000000000000 ) ) ;
#63 = CIRCLE ( 'NONE', #103, 13.00000000000000178 ) ;
#64 = AXIS2_PLACEMENT_3D ( 'NONE', #340, #68, #92 ) ;
#65 = APPLICATION_PROTOCOL_DEFINITION ( 'draft international standard', 'automotive_design', 1998, #183 ) ;
#66 = CYLINDRICAL_SURFACE ( 'NONE', #77, 13.00000000000000178 ) ;
#67 = ITEM_DEFINED_TRANSFORMATION ( 'NONE', 'NONE', #32,  #349 ) ;
#68 = DIRECTION ( 'NONE',  ( 0.000000000000000000, 0.000000000000000000, 1.000000000000000000 ) ) ;
#69 =( LENGTH_UNIT ( ) NAMED_UNIT ( * ) SI_UNIT ( .MILLI., .METRE. ) );
#70 = AXIS2_PLACEMENT_3D ( 'NONE', #395, #26, #61 ) ;
#71 = CYLINDRICAL_SURFACE ( 'NONE', #5, 13.00000000000000178 ) ;
#72 = ADVANCED_FACE ( 'NONE', ( #212, #55 ), #119, .F. ) ;
#73 = VERTEX_POINT ( 'NONE', #181 ) ;
#74 = LINE ( 'NONE', #251, #224 ) ;
#75 = VERTEX_POINT ( 'NONE', #84 ) ;
#76 = ORIENTED_EDGE ( 'NONE', *, *, #278, .T. ) ;
#77 = AXIS2_PLACEMENT_3D ( 'NONE', #185, #321, #199 ) ;
#78 = ORIENTED_EDGE ( 'NONE', *, *, #177, .F. ) ;
#79 = CARTESIAN_POINT ( 'NONE',  ( 13.00000000000000178, 1.592040838891559293E-15, 10.00000000000000000 ) ) ;
#80 = VERTEX_POINT ( 'NONE', #297 ) ;
#81 = PRODUCT_DEFINITION ( 'UNKNOWN', '', #191, #264 ) ;
#82 = ORIENTED_EDGE ( 'NONE', *, *, #357, .F. ) ;
#83 = COLOUR_RGB ( '',0.7921568627450980005, 0.8196078431372548767, 0.9333333333333333481 ) ;
#84 = CARTESIAN_POINT ( 'NONE',  ( 13.00000000000000178, 1.592040838891559293E-15, 8.500000000000000000 ) ) ;
#85 = EDGE_CURVE ( 'NONE', #274, #80, #244, .T. ) ;
#86 = CARTESIAN_POINT ( 'NONE',  ( 0.000000000000000000, 0.000000000000000000, 10.00000000000000000 ) ) ;
#87 = PRODUCT_DEFINITION ( 'UNKNOWN', '', #39, #24 ) ;
#88 = DIRECTION ( 'NONE',  ( 1.000000000000000000, 0.000000000000000000, -0.000000000000000000 ) ) ;
#89 = CARTESIAN_POINT ( 'NONE',  ( 0.000000000000000000, 0.000000000000000000, -10.00000000000000000 ) ) ;
#90 = DIRECTION ( 'NONE',  ( 0.000000000000000000, 0.000000000000000000, 1.000000000000000000 ) ) ;
#91 = CARTESIAN_POINT ( 'NONE',  ( 0.000000000000000000, 0.000000000000000000, 0.000000000000000000 ) ) ;
#92 = DIRECTION ( 'NONE',  ( 1.000000000000000000, 0.000000000000000000, 0.000000000000000000 ) ) ;
#93 = DIRECTION ( 'NONE',  ( 0.000000000000000000, 0.000000000000000000, 1.000000000000000000 ) ) ;
#94 = CARTESIAN_POINT ( 'NONE',  ( 0.000000000000000000, 0.000000000000000000, 10.00000000000000000 ) ) ;
#95 = CIRCLE ( 'NONE', #148, 11.37500000000000000 ) ;
#96 = PRODUCT_DEFINITION_SHAPE ( 'NONE', 'NONE',  #87 ) ;
#97 = ADVANCED_FACE ( 'NONE', ( #360 ), #210, .T. ) ;
#98 = FILL_AREA_STYLE ('',( #370 ) ) ;
#99 = DIRECTION ( 'NONE',  ( 1.000000000000000000, 0.000000000000000000, 0.000000000000000000 ) ) ;
#100 = DIRECTION ( 'NONE',  ( 0.000000000000000000, 0.000000000000000000, 1.000000000000000000 ) ) ;
#101 = AXIS2_PLACEMENT_3D ( 'NONE', #266, #120, #295 ) ;
#102 = ORIENTED_EDGE ( 'NONE', *, *, #131, .F. ) ;
#103 = AXIS2_PLACEMENT_3D ( 'NONE', #394, #123, #23 ) ;
#104 = DIRECTION ( 'NONE',  ( 0.000000000000000000, 0.000000000000000000, 1.000000000000000000 ) ) ;
#105 = ORIENTED_EDGE ( 'NONE', *, *, #112, .F. ) ;
#106 = DIRECTION ( 'NONE',  ( 0.000000000000000000, 0.000000000000000000, 1.000000000000000000 ) ) ;
#107 = ORIENTED_EDGE ( 'NONE', *, *, #213, .F. ) ;
#108 = ORIENTED_EDGE ( 'NONE', *, *, #125, .T. ) ;
#109 = EDGE_CURVE ( 'NONE', #277, #75, #178, .T. ) ;
#110 = AXIS2_PLACEMENT_3D ( 'NONE', #288, #377, #42 ) ;
#111 = LINE ( 'NONE', #320, #269 ) ;
#112 = EDGE_CURVE ( 'NONE', #388, #164, #338, .T. ) ;
#113 = DIRECTION ( 'NONE',  ( 1.000000000000000000, 0.000000000000000000, 0.000000000000000000 ) ) ;
#114 = ORIENTED_EDGE ( 'NONE', *, *, #59, .T. ) ;
#115 = EDGE_LOOP ( 'NONE', ( #383, #197, #78, #196 ) ) ;
#116 = AXIS2_PLACEMENT_3D ( 'NONE', #233, #104, #141 ) ;
#117 = VECTOR ( 'NONE', #276, 1000.000000000000000 ) ;
#118 = CARTESIAN_POINT ( 'NONE',  ( 0.000000000000000000, 0.000000000000000000, -10.00000000000000000 ) ) ;
#119 = PLANE ( 'NONE',  #373 ) ;
#120 = DIRECTION ( 'NONE',  ( 0.000000000000000000, 0.000000000000000000, 1.000000000000000000 ) ) ;
#121 = PRODUCT_CONTEXT ( 'NONE', #260, 'mechanical' ) ;
#122 =( GEOMETRIC_REPRESENTATION_CONTEXT ( 3 ) GLOBAL_UNCERTAINTY_ASSIGNED_CONTEXT ( ( #21 ) ) GLOBAL_UNIT_ASSIGNED_CONTEXT ( ( #347, #350, #29 ) ) REPRESENTATION_CONTEXT ( 'NONE', 'WORKASPACE' ) );
#123 = DIRECTION ( 'NONE',  ( 0.000000000000000000, 0.000000000000000000, 1.000000000000000000 ) ) ;
#124 = CIRCLE ( 'NONE', #64, 13.00000000000000178 ) ;
#125 = EDGE_CURVE ( 'NONE', #234, #20, #361, .T. ) ;
#126 = CARTESIAN_POINT ( 'NONE',  ( 0.000000000000000000, 0.000000000000000000, 8.500000000000000000 ) ) ;
#127 = CARTESIAN_POINT ( 'NONE',  ( 0.000000000000000000, 0.000000000000000000, 10.00000000000000000 ) ) ;
#128 = EDGE_LOOP ( 'NONE', ( #294, #114 ) ) ;
#129 =( NAMED_UNIT ( * ) SI_UNIT ( $, .STERADIAN. ) SOLID_ANGLE_UNIT ( ) );
#130 =( GEOMETRIC_REPRESENTATION_CONTEXT ( 3 ) GLOBAL_UNCERTAINTY_ASSIGNED_CONTEXT ( ( #391 ) ) GLOBAL_UNIT_ASSIGNED_CONTEXT ( ( #229, #353, #46 ) ) REPRESENTATION_CONTEXT ( 'NONE', 'WORKASPACE' ) );
#131 = EDGE_CURVE ( 'NONE', #171, #53, #389, .T. ) ;
#132 = DIRECTION ( 'NONE',  ( 0.000000000000000000, 0.000000000000000000, 1.000000000000000000 ) ) ;
#133 = DIRECTION ( 'NONE',  ( -0.000000000000000000, -0.000000000000000000, -1.000000000000000000 ) ) ;
#134 = ADVANCED_FACE ( 'NONE', ( #327 ), #153, .T. ) ;
#135 = FACE_OUTER_BOUND ( 'NONE', #146, .T. ) ;
#136 = AXIS2_PLACEMENT_3D ( 'NONE', #118, #35, #195 ) ;
#137 = VERTEX_POINT ( 'NONE', #22 ) ;
#138 = LINE ( 'NONE', #348, #362 ) ;
#139 = DIRECTION ( 'NONE',  ( 0.000000000000000000, 0.000000000000000000, 1.000000000000000000 ) ) ;
#140 = ORIENTED_EDGE ( 'NONE', *, *, #112, .T. ) ;
#141 = DIRECTION ( 'NONE',  ( 1.000000000000000000, 0.000000000000000000, -0.000000000000000000 ) ) ;
#142 = ORIENTED_EDGE ( 'NONE', *, *, #13, .T. ) ;
#143 = CIRCLE ( 'NONE', #163, 4.000000000000000000 ) ;
#144 = PLANE ( 'NONE',  #194 ) ;
#145 = DIRECTION ( 'NONE',  ( 1.000000000000000000, 0.000000000000000000, 0.000000000000000000 ) ) ;
#146 = EDGE_LOOP ( 'NONE', ( #107, #317, #225, #203 ) ) ;
#147 = DIRECTION ( 'NONE',  ( -1.000000000000000000, 0.000000000000000000, 0.000000000000000000 ) ) ;
#148 = AXIS2_PLACEMENT_3D ( 'NONE', #51, #14, #113 ) ;
#149 = DIRECTION ( 'NONE',  ( 1.000000000000000000, 0.000000000000000000, 0.000000000000000000 ) ) ;
#150 = DIRECTION ( 'NONE',  ( -0.000000000000000000, -0.000000000000000000, -1.000000000000000000 ) ) ;
#151 = CARTESIAN_POINT ( 'NONE',  ( 0.000000000000000000, 0.000000000000000000, -8.500000000000000000 ) ) ;
#152 = CIRCLE ( 'NONE', #172, 4.000000000000000000 ) ;
#153 = CYLINDRICAL_SURFACE ( 'NONE', #34, 11.37500000000000000 ) ;
#154 = FACE_OUTER_BOUND ( 'NONE', #115, .T. ) ;
#155 = DIRECTION ( 'NONE',  ( 1.000000000000000000, 0.000000000000000000, 0.000000000000000000 ) ) ;
#156 = EDGE_LOOP ( 'NONE', ( #43, #205 ) ) ;
#157 = LINE ( 'NONE', #188, #117 ) ;
#158 = VERTEX_POINT ( 'NONE', #329 ) ;
#159 = DIRECTION ( 'NONE',  ( -1.000000000000000000, 0.000000000000000000, 0.000000000000000000 ) ) ;
#160 = ORIENTED_EDGE ( 'NONE', *, *, #384, .F. ) ;
#161 = FACE_OUTER_BOUND ( 'NONE', #17, .T. ) ;
#162 = DIRECTION ( 'NONE',  ( -0.000000000000000000, -0.000000000000000000, -1.000000000000000000 ) ) ;
#163 = AXIS2_PLACEMENT_3D ( 'NONE', #89, #175, #149 ) ;
#164 = VERTEX_POINT ( 'NONE', #215 ) ;
#165 = AXIS2_PLACEMENT_3D ( 'NONE', #313, #139, #202 ) ;
#166 = ADVANCED_FACE ( 'NONE', ( #333, #272 ), #60, .F. ) ;
#167 = DIRECTION ( 'NONE',  ( 1.000000000000000000, 0.000000000000000000, 0.000000000000000000 ) ) ;
#168 = FACE_BOUND ( 'NONE', #156, .T. ) ;
#169 = PLANE ( 'NONE',  #116 ) ;
#170 = EDGE_LOOP ( 'NONE', ( #102, #258 ) ) ;
#171 = VERTEX_POINT ( 'NONE', #265 ) ;
#172 = AXIS2_PLACEMENT_3D ( 'NONE', #30, #247, #359 ) ;
#173 = FACE_OUTER_BOUND ( 'NONE', #379, .T. ) ;
#174 = EDGE_LOOP ( 'NONE', ( #15, #236, #309, #2 ) ) ;
#175 = DIRECTION ( 'NONE',  ( 0.000000000000000000, 0.000000000000000000, 1.000000000000000000 ) ) ;
#176 = DIRECTION ( 'NONE',  ( 1.000000000000000000, 0.000000000000000000, -0.000000000000000000 ) ) ;
#177 = EDGE_CURVE ( 'NONE', #158, #137, #292, .T. ) ;
#178 = LINE ( 'NONE', #27, #282 ) ;
#179 = SHAPE_DEFINITION_REPRESENTATION ( #96, #354 ) ;
#180 = CARTESIAN_POINT ( 'NONE',  ( 0.000000000000000000, 0.000000000000000000, -10.00000000000000000 ) ) ;
#181 = CARTESIAN_POINT ( 'NONE',  ( 11.37500000000000000, 0.000000000000000000, -8.500000000000000000 ) ) ;
#182 = DIRECTION ( 'NONE',  ( 0.000000000000000000, 0.000000000000000000, 1.000000000000000000 ) ) ;
#183 = APPLICATION_CONTEXT ( 'automotive_design' ) ;
#184 = EDGE_CURVE ( 'NONE', #75, #20, #322, .T. ) ;
#185 = CARTESIAN_POINT ( 'NONE',  ( 0.000000000000000000, 0.000000000000000000, 10.00000000000000000 ) ) ;
#186 = MANIFOLD_SOLID_BREP ( '\X2\0412044b044004350437\X0\-\X2\0412044b0442044f043d04430442044c\X0\1', #45 ) ;
#187 = PRODUCT_DEFINITION_SHAPE ( 'NONE', 'NONE',  #81 ) ;
#188 = CARTESIAN_POINT ( 'NONE',  ( 11.37500000000000000, 0.000000000000000000, -8.500000000000000000 ) ) ;
#189 = ORIENTED_EDGE ( 'NONE', *, *, #235, .F. ) ;
#190 = DIRECTION ( 'NONE',  ( 0.000000000000000000, 0.000000000000000000, 1.000000000000000000 ) ) ;
#191 = PRODUCT_DEFINITION_FORMATION_WITH_SPECIFIED_SOURCE ( 'ANY', '', #369, .NOT_KNOWN. ) ;
#192 = PRODUCT ( '\X2\04210431043e0440043a0430\X0\6', '\X2\04210431043e0440043a0430\X0\6', '', ( #216 ) ) ;
#193 = ORIENTED_EDGE ( 'NONE', *, *, #184, .F. ) ;
#194 = AXIS2_PLACEMENT_3D ( 'NONE', #262, #386, #88 ) ;
#195 = DIRECTION ( 'NONE',  ( 1.000000000000000000, 0.000000000000000000, 0.000000000000000000 ) ) ;
#196 = ORIENTED_EDGE ( 'NONE', *, *, #13, .F. ) ;
#197 = ORIENTED_EDGE ( 'NONE', *, *, #384, .T. ) ;
#198 = EDGE_CURVE ( 'NONE', #53, #171, #218, .T. ) ;
#199 = DIRECTION ( 'NONE',  ( -1.000000000000000000, 0.000000000000000000, 0.000000000000000000 ) ) ;
#200 = CIRCLE ( 'NONE', #219, 11.37500000000000000 ) ;
#201 = ORIENTED_EDGE ( 'NONE', *, *, #28, .F. ) ;
#202 = DIRECTION ( 'NONE',  ( 1.000000000000000000, 0.000000000000000000, 0.000000000000000000 ) ) ;
#203 = ORIENTED_EDGE ( 'NONE', *, *, #378, .F. ) ;
#204 = DIRECTION ( 'NONE',  ( -0.000000000000000000, -0.000000000000000000, -1.000000000000000000 ) ) ;
#205 = ORIENTED_EDGE ( 'NONE', *, *, #243, .F. ) ;
#206 = LINE ( 'NONE', #79, #209 ) ;
#207 = ORIENTED_EDGE ( 'NONE', *, *, #85, .T. ) ;
#208 = AXIS2_PLACEMENT_3D ( 'NONE', #86, #58, #331 ) ;
#209 = VECTOR ( 'NONE', #204, 1000.000000000000000 ) ;
#210 = CYLINDRICAL_SURFACE ( 'NONE', #208, 13.00000000000000178 ) ;
#211 = DIRECTION ( 'NONE',  ( -0.000000000000000000, -0.000000000000000000, 1.000000000000000000 ) ) ;
#212 = FACE_BOUND ( 'NONE', #41, .T. ) ;
#213 = EDGE_CURVE ( 'NONE', #164, #388, #124, .T. ) ;
#214 = CIRCLE ( 'NONE', #343, 11.37500000000000000 ) ;
#215 = CARTESIAN_POINT ( 'NONE',  ( 13.00000000000000178, 1.592040838891559293E-15, -8.500000000000000000 ) ) ;
#216 = PRODUCT_CONTEXT ( 'NONE', #335, 'mechanical' ) ;
#217 = DIRECTION ( 'NONE',  ( 0.000000000000000000, 0.000000000000000000, 1.000000000000000000 ) ) ;
#218 = CIRCLE ( 'NONE', #238, 13.00000000000000178 ) ;
#219 = AXIS2_PLACEMENT_3D ( 'NONE', #257, #345, #316 ) ;
#220 = DIRECTION ( 'NONE',  ( -1.000000000000000000, 0.000000000000000000, 0.000000000000000000 ) ) ;
#221 = APPLICATION_PROTOCOL_DEFINITION ( 'draft international standard', 'automotive_design', 1998, #260 ) ;
#222 = CARTESIAN_POINT ( 'NONE',  ( 0.000000000000000000, 0.000000000000000000, -8.500000000000000000 ) ) ;
#223 = CARTESIAN_POINT ( 'NONE',  ( 0.000000000000000000, 0.000000000000000000, 10.00000000000000000 ) ) ;
#224 = VECTOR ( 'NONE', #318, 1000.000000000000000 ) ;
#225 = ORIENTED_EDGE ( 'NONE', *, *, #198, .T. ) ;
#226 = SHAPE_REPRESENTATION_RELATIONSHIP ( 'NONE' , 'NONE' ,  #254, #326 ) ;
#227 = ORIENTED_EDGE ( 'NONE', *, *, #56, .F. ) ;
#228 = EDGE_CURVE ( 'NONE', #73, #80, #157, .T. ) ;
#229 =( LENGTH_UNIT ( ) NAMED_UNIT ( * ) SI_UNIT ( .MILLI., .METRE. ) );
#230 = VERTEX_POINT ( 'NONE', #308 ) ;
#231 = CYLINDRICAL_SURFACE ( 'NONE', #110, 11.37500000000000000 ) ;
#232 = ORIENTED_EDGE ( 'NONE', *, *, #59, .F. ) ;
#233 = CARTESIAN_POINT ( 'NONE',  ( 0.000000000000000000, 0.000000000000000000, 10.00000000000000000 ) ) ;
#234 = VERTEX_POINT ( 'NONE', #312 ) ;
#235 = EDGE_CURVE ( 'NONE', #234, #277, #356, .T. ) ;
#236 = ORIENTED_EDGE ( 'NONE', *, *, #243, .T. ) ;
#237 = AXIS2_PLACEMENT_3D ( 'NONE', #91, #93, #145 ) ;
#238 = AXIS2_PLACEMENT_3D ( 'NONE', #336, #182, #99 ) ;
#239 = CARTESIAN_POINT ( 'NONE',  ( 0.000000000000000000, 0.000000000000000000, -10.00000000000000000 ) ) ;
#240 = ADVANCED_FACE ( 'NONE', ( #154 ), #275, .F. ) ;
#241 = FACE_OUTER_BOUND ( 'NONE', #346, .T. ) ;
#242 = CARTESIAN_POINT ( 'NONE',  ( -13.00000000000000178, 0.000000000000000000, 10.00000000000000000 ) ) ;
#243 = EDGE_CURVE ( 'NONE', #230, #73, #214, .T. ) ;
#244 = CIRCLE ( 'NONE', #101, 11.37500000000000000 ) ;
#245 = CARTESIAN_POINT ( 'NONE',  ( 0.000000000000000000, 0.000000000000000000, 10.00000000000000000 ) ) ;
#246 = ADVANCED_FACE ( 'NONE', ( #161 ), #344, .F. ) ;
#247 = DIRECTION ( 'NONE',  ( 0.000000000000000000, 0.000000000000000000, 1.000000000000000000 ) ) ;
#248 = CARTESIAN_POINT ( 'NONE',  ( 0.000000000000000000, 0.000000000000000000, 10.00000000000000000 ) ) ;
#249 = AXIS2_PLACEMENT_3D ( 'NONE', #248, #40, #159 ) ;
#250 = VERTEX_POINT ( 'NONE', #7 ) ;
#251 = CARTESIAN_POINT ( 'NONE',  ( -13.00000000000000178, 0.000000000000000000, 10.00000000000000000 ) ) ;
#252 = VECTOR ( 'NONE', #150, 1000.000000000000000 ) ;
#253 = EDGE_LOOP ( 'NONE', ( #201, #376, #284, #256 ) ) ;
#254 = SHAPE_REPRESENTATION ( 'B643 \X2\041d04300442044f0436043d043e0439\X0\ \X2\0430043b044e043c0438043d043804350432044b0439\X0\ \X2\0440043e043b0438043a\X0\ HTD5M, \X2\043f043e0434\X0\ \X2\04320430043b\X0\ 8\X2\043c043c\X0\', ( #349 ), #130 ) ;
#255 = CARTESIAN_POINT ( 'NONE',  ( 0.000000000000000000, 0.000000000000000000, 0.000000000000000000 ) ) ;
#256 = ORIENTED_EDGE ( 'NONE', *, *, #125, .F. ) ;
#257 = CARTESIAN_POINT ( 'NONE',  ( 0.000000000000000000, 0.000000000000000000, -8.500000000000000000 ) ) ;
#258 = ORIENTED_EDGE ( 'NONE', *, *, #198, .F. ) ;
#259 = AXIS2_PLACEMENT_3D ( 'NONE', #127, #6, #371 ) ;
#260 = APPLICATION_CONTEXT ( 'automotive_design' ) ;
#261 = CARTESIAN_POINT ( 'NONE',  ( 996.7489301358025386, 1006.409766940549389, 996.8423446063967504 ) ) ;
#262 = CARTESIAN_POINT ( 'NONE',  ( 0.000000000000000000, 0.000000000000000000, -8.500000000000000000 ) ) ;
#263 = ORIENTED_EDGE ( 'NONE', *, *, #10, .T. ) ;
#264 = PRODUCT_DEFINITION_CONTEXT ( 'detailed design', #183, 'design' ) ;
#265 = CARTESIAN_POINT ( 'NONE',  ( -13.00000000000000178, 0.000000000000000000, -10.00000000000000000 ) ) ;
#266 = CARTESIAN_POINT ( 'NONE',  ( 0.000000000000000000, 0.000000000000000000, 8.500000000000000000 ) ) ;
#267 = DIRECTION ( 'NONE',  ( 0.000000000000000000, 0.000000000000000000, 1.000000000000000000 ) ) ;
#268 = DIRECTION ( 'NONE',  ( 1.000000000000000000, 0.000000000000000000, 0.000000000000000000 ) ) ;
#269 = VECTOR ( 'NONE', #50, 1000.000000000000000 ) ;
#270 = ADVANCED_FACE ( 'NONE', ( #365 ), #71, .T. ) ;
#271 = APPLICATION_PROTOCOL_DEFINITION ( 'draft international standard', 'automotive_design', 1998, #330 ) ;
#272 = FACE_BOUND ( 'NONE', #128, .T. ) ;
#273 =( NAMED_UNIT ( * ) PLANE_ANGLE_UNIT ( ) SI_UNIT ( $, .RADIAN. ) );
#274 = VERTEX_POINT ( 'NONE', #339 ) ;
#275 = CYLINDRICAL_SURFACE ( 'NONE', #259, 4.000000000000000000 ) ;
#276 = DIRECTION ( 'NONE',  ( -0.000000000000000000, -0.000000000000000000, 1.000000000000000000 ) ) ;
#277 = VERTEX_POINT ( 'NONE', #372 ) ;
#278 = EDGE_CURVE ( 'NONE', #311, #250, #323, .T. ) ;
#279 = DIRECTION ( 'NONE',  ( 1.000000000000000000, 0.000000000000000000, 0.000000000000000000 ) ) ;
#280 = ORIENTED_EDGE ( 'NONE', *, *, #387, .T. ) ;
#281 = ADVANCED_FACE ( 'NONE', ( #135 ), #66, .T. ) ;
#282 = VECTOR ( 'NONE', #298, 1000.000000000000000 ) ;
#283 = DIRECTION ( 'NONE',  ( 1.000000000000000000, 0.000000000000000000, 0.000000000000000000 ) ) ;
#284 = ORIENTED_EDGE ( 'NONE', *, *, #184, .T. ) ;
#285 = STYLED_ITEM ( 'NONE', ( #3 ), #186 ) ;
#286 = LINE ( 'NONE', #381, #315 ) ;
#287 = FACE_OUTER_BOUND ( 'NONE', #319, .T. ) ;
#288 = CARTESIAN_POINT ( 'NONE',  ( 0.000000000000000000, 0.000000000000000000, -8.500000000000000000 ) ) ;
#289 = ADVANCED_FACE ( 'NONE', ( #16 ), #231, .T. ) ;
#290 = ORIENTED_EDGE ( 'NONE', *, *, #131, .T. ) ;
#291 = DIRECTION ( 'NONE',  ( -0.000000000000000000, -0.000000000000000000, -1.000000000000000000 ) ) ;
#292 = CIRCLE ( 'NONE', #136, 4.000000000000000000 ) ;
#293 = CARTESIAN_POINT ( 'NONE',  ( 4.000000000000000000, 4.898587196589412829E-16, 10.00000000000000000 ) ) ;
#294 = ORIENTED_EDGE ( 'NONE', *, *, #177, .T. ) ;
#295 = DIRECTION ( 'NONE',  ( 1.000000000000000000, 0.000000000000000000, 0.000000000000000000 ) ) ;
#296 = PRODUCT_RELATED_PRODUCT_CATEGORY ( 'part', '', ( #369 ) ) ;
#297 = CARTESIAN_POINT ( 'NONE',  ( 11.37500000000000000, 0.000000000000000000, 8.500000000000000000 ) ) ;
#298 = DIRECTION ( 'NONE',  ( -0.000000000000000000, -0.000000000000000000, -1.000000000000000000 ) ) ;
#299 = UNCERTAINTY_MEASURE_WITH_UNIT (LENGTH_MEASURE( 1.000000000000000082E-05 ), #69, 'distance_accuracy_value', 'NONE');
#300 = SHAPE_DEFINITION_REPRESENTATION ( #187, #254 ) ;
#301 = DIRECTION ( 'NONE',  ( 1.000000000000000000, 0.000000000000000000, 0.000000000000000000 ) ) ;
#302 = DIRECTION ( 'NONE',  ( 1.000000000000000000, 0.000000000000000000, 0.000000000000000000 ) ) ;
#303 =( GEOMETRIC_REPRESENTATION_CONTEXT ( 3 ) GLOBAL_UNCERTAINTY_ASSIGNED_CONTEXT ( ( #299 ) ) GLOBAL_UNIT_ASSIGNED_CONTEXT ( ( #69, #273, #129 ) ) REPRESENTATION_CONTEXT ( 'NONE', 'WORKASPACE' ) );
#304 = PRESENTATION_LAYER_ASSIGNMENT (  '', '', ( #285 ) ) ;
#305 = SURFACE_STYLE_FILL_AREA ( #98 ) ;
#306 = ORIENTED_EDGE ( 'NONE', *, *, #278, .F. ) ;
#307 = DIRECTION ( 'NONE',  ( 0.000000000000000000, 0.000000000000000000, 1.000000000000000000 ) ) ;
#308 = CARTESIAN_POINT ( 'NONE',  ( -11.37500000000000000, 1.393035734030114282E-15, -8.500000000000000000 ) ) ;
#309 = ORIENTED_EDGE ( 'NONE', *, *, #228, .T. ) ;
#310 = DIRECTION ( 'NONE',  ( 1.000000000000000000, 0.000000000000000000, 0.000000000000000000 ) ) ;
#311 = VERTEX_POINT ( 'NONE', #293 ) ;
#312 = CARTESIAN_POINT ( 'NONE',  ( -13.00000000000000178, 0.000000000000000000, 10.00000000000000000 ) ) ;
#313 = CARTESIAN_POINT ( 'NONE',  ( 0.000000000000000000, 0.000000000000000000, 0.000000000000000000 ) ) ;
#314 = ORIENTED_EDGE ( 'NONE', *, *, #28, .T. ) ;
#315 = VECTOR ( 'NONE', #162, 1000.000000000000000 ) ;
#316 = DIRECTION ( 'NONE',  ( 1.000000000000000000, 0.000000000000000000, 0.000000000000000000 ) ) ;
#317 = ORIENTED_EDGE ( 'NONE', *, *, #357, .T. ) ;
#318 = DIRECTION ( 'NONE',  ( -0.000000000000000000, -0.000000000000000000, -1.000000000000000000 ) ) ;
#319 = EDGE_LOOP ( 'NONE', ( #140, #38 ) ) ;
#320 = CARTESIAN_POINT ( 'NONE',  ( -11.37500000000000000, 1.393035734030114282E-15, -8.500000000000000000 ) ) ;
#321 = DIRECTION ( 'NONE',  ( -0.000000000000000000, -0.000000000000000000, -1.000000000000000000 ) ) ;
#322 = CIRCLE ( 'NONE', #337, 13.00000000000000178 ) ;
#323 = CIRCLE ( 'NONE', #44, 4.000000000000000000 ) ;
#324 = ORIENTED_EDGE ( 'NONE', *, *, #56, .T. ) ;
#325 = AXIS2_PLACEMENT_3D ( 'NONE', #245, #392, #147 ) ;
#326 = ADVANCED_BREP_SHAPE_REPRESENTATION ( '', ( #186, #349 ), #130 ) ;
#327 = FACE_OUTER_BOUND ( 'NONE', #174, .T. ) ;
#328 = ADVANCED_FACE ( 'NONE', ( #173, #49 ), #169, .T. ) ;
#329 = CARTESIAN_POINT ( 'NONE',  ( -4.000000000000000000, 0.000000000000000000, -10.00000000000000000 ) ) ;
#330 = APPLICATION_CONTEXT ( 'automotive_design' ) ;
#331 = DIRECTION ( 'NONE',  ( -1.000000000000000000, 0.000000000000000000, 0.000000000000000000 ) ) ;
#332 = CONTEXT_DEPENDENT_SHAPE_REPRESENTATION ( #355, #342 ) ;
#333 = FACE_OUTER_BOUND ( 'NONE', #170, .T. ) ;
#334 = DIRECTION ( 'NONE',  ( 1.000000000000000000, 0.000000000000000000, -0.000000000000000000 ) ) ;
#335 = APPLICATION_CONTEXT ( 'automotive_design' ) ;
#336 = CARTESIAN_POINT ( 'NONE',  ( 0.000000000000000000, 0.000000000000000000, -10.00000000000000000 ) ) ;
#337 = AXIS2_PLACEMENT_3D ( 'NONE', #62, #307, #155 ) ;
#338 = CIRCLE ( 'NONE', #70, 13.00000000000000178 ) ;
#339 = CARTESIAN_POINT ( 'NONE',  ( -11.37500000000000000, 1.393035734030114282E-15, 8.500000000000000000 ) ) ;
#340 = CARTESIAN_POINT ( 'NONE',  ( 0.000000000000000000, 0.000000000000000000, -8.500000000000000000 ) ) ;
#341 = SURFACE_SIDE_STYLE ('',( #305 ) ) ;
#342 = PRODUCT_DEFINITION_SHAPE ( 'NONE', 'NONE',  #396 ) ;
#343 = AXIS2_PLACEMENT_3D ( 'NONE', #222, #190, #310 ) ;
#344 = CYLINDRICAL_SURFACE ( 'NONE', #249, 4.000000000000000000 ) ;
#345 = DIRECTION ( 'NONE',  ( 0.000000000000000000, 0.000000000000000000, 1.000000000000000000 ) ) ;
#346 = EDGE_LOOP ( 'NONE', ( #82, #105, #12, #290 ) ) ;
#347 =( LENGTH_UNIT ( ) NAMED_UNIT ( * ) SI_UNIT ( .MILLI., .METRE. ) );
#348 = CARTESIAN_POINT ( 'NONE',  ( -4.000000000000000000, 0.000000000000000000, 10.00000000000000000 ) ) ;
#349 = AXIS2_PLACEMENT_3D ( 'NONE', #255, #106, #167 ) ;
#350 =( NAMED_UNIT ( * ) PLANE_ANGLE_UNIT ( ) SI_UNIT ( $, .RADIAN. ) );
#351 = ORIENTED_EDGE ( 'NONE', *, *, #366, .T. ) ;
#352 = EDGE_LOOP ( 'NONE', ( #227, #193 ) ) ;
#353 =( NAMED_UNIT ( * ) PLANE_ANGLE_UNIT ( ) SI_UNIT ( $, .RADIAN. ) );
#354 = SHAPE_REPRESENTATION ( '\X2\04210431043e0440043a0430\X0\6', ( #237, #32 ), #122 ) ;
#355 =( REPRESENTATION_RELATIONSHIP ('NONE','NONE', #354, #254 ) REPRESENTATION_RELATIONSHIP_WITH_TRANSFORMATION ( #67 )SHAPE_REPRESENTATION_RELATIONSHIP( ) );
#356 = CIRCLE ( 'NONE', #9, 13.00000000000000178 ) ;
#357 = EDGE_CURVE ( 'NONE', #164, #53, #206, .T. ) ;
#358 = ORIENTED_EDGE ( 'NONE', *, *, #228, .F. ) ;
#359 = DIRECTION ( 'NONE',  ( 1.000000000000000000, 0.000000000000000000, 0.000000000000000000 ) ) ;
#360 = FACE_OUTER_BOUND ( 'NONE', #47, .T. ) ;
#361 = LINE ( 'NONE', #242, #252 ) ;
#362 = VECTOR ( 'NONE', #291, 1000.000000000000000 ) ;
#363 = CARTESIAN_POINT ( 'NONE',  ( 0.000000000000000000, 0.000000000000000000, 8.500000000000000000 ) ) ;
#364 = CARTESIAN_POINT ( 'NONE',  ( 0.000000000000000000, 0.000000000000000000, 10.00000000000000000 ) ) ;
#365 = FACE_OUTER_BOUND ( 'NONE', #253, .T. ) ;
#366 = EDGE_CURVE ( 'NONE', #73, #230, #200, .T. ) ;
#367 = ORIENTED_EDGE ( 'NONE', *, *, #33, .F. ) ;
#368 = APPLICATION_PROTOCOL_DEFINITION ( 'draft international standard', 'automotive_design', 1998, #335 ) ;
#369 = PRODUCT ( 'B643 \X2\041d04300442044f0436043d043e0439\X0\ \X2\0430043b044e043c0438043d043804350432044b0439\X0\ \X2\0440043e043b0438043a\X0\ HTD5M, \X2\043f043e0434\X0\ \X2\04320430043b\X0\ 8\X2\043c043c\X0\', 'B643 \X2\041d04300442044f0436043d043e0439\X0\ \X2\0430043b044e043c0438043d043804350432044b0439\X0\ \X2\0440043e043b0438043a\X0\ HTD5M, \X2\043f043e0434\X0\ \X2\04320430043b\X0\ 8\X2\043c043c\X0\', '', ( #121 ) ) ;
#370 = FILL_AREA_STYLE_COLOUR ( '', #83 ) ;
#371 = DIRECTION ( 'NONE',  ( -1.000000000000000000, 0.000000000000000000, 0.000000000000000000 ) ) ;
#372 = CARTESIAN_POINT ( 'NONE',  ( 13.00000000000000178, 1.592040838891559293E-15, 10.00000000000000000 ) ) ;
#373 = AXIS2_PLACEMENT_3D ( 'NONE', #363, #217, #334 ) ;
#374 = PRODUCT_RELATED_PRODUCT_CATEGORY ( 'part', '', ( #192 ) ) ;
#375 = CIRCLE ( 'NONE', #382, 13.00000000000000178 ) ;
#376 = ORIENTED_EDGE ( 'NONE', *, *, #109, .T. ) ;
#377 = DIRECTION ( 'NONE',  ( -0.000000000000000000, -0.000000000000000000, 1.000000000000000000 ) ) ;
#378 = EDGE_CURVE ( 'NONE', #388, #171, #74, .T. ) ;
#379 = EDGE_LOOP ( 'NONE', ( #380, #314 ) ) ;
#380 = ORIENTED_EDGE ( 'NONE', *, *, #235, .T. ) ;
#381 = CARTESIAN_POINT ( 'NONE',  ( 4.000000000000000000, 4.898587196589412829E-16, 10.00000000000000000 ) ) ;
#382 = AXIS2_PLACEMENT_3D ( 'NONE', #126, #57, #301 ) ;
#383 = ORIENTED_EDGE ( 'NONE', *, *, #33, .T. ) ;
#384 = EDGE_CURVE ( 'NONE', #311, #137, #286, .T. ) ;
#385 = DIRECTION ( 'NONE',  ( 0.000000000000000000, 0.000000000000000000, 1.000000000000000000 ) ) ;
#386 = DIRECTION ( 'NONE',  ( 0.000000000000000000, 0.000000000000000000, 1.000000000000000000 ) ) ;
#387 = EDGE_CURVE ( 'NONE', #80, #274, #95, .T. ) ;
#388 = VERTEX_POINT ( 'NONE', #19 ) ;
#389 = CIRCLE ( 'NONE', #11, 13.00000000000000178 ) ;
#390 = CYLINDRICAL_SURFACE ( 'NONE', #325, 13.00000000000000178 ) ;
#391 = UNCERTAINTY_MEASURE_WITH_UNIT (LENGTH_MEASURE( 1.000000000000000082E-05 ), #229, 'distance_accuracy_value', 'NONE');
#392 = DIRECTION ( 'NONE',  ( -0.000000000000000000, -0.000000000000000000, -1.000000000000000000 ) ) ;
#393 = CARTESIAN_POINT ( 'NONE',  ( 13.00000000000000178, 1.592040838891559293E-15, -10.00000000000000000 ) ) ;
#394 = CARTESIAN_POINT ( 'NONE',  ( 0.000000000000000000, 0.000000000000000000, 10.00000000000000000 ) ) ;
#395 = CARTESIAN_POINT ( 'NONE',  ( 0.000000000000000000, 0.000000000000000000, -8.500000000000000000 ) ) ;
#396 = NEXT_ASSEMBLY_USAGE_OCCURRENCE ( 'NAUO1', ' ', ' ', #87, #81, $ ) ;
ENDSEC;
END-ISO-10303-21;
