ISO-10303-21;
HEADER;
FILE_DESCRIPTION (( 'STEP AP214' ),
    '1' );
FILE_NAME ('Ñáîðêà1.STEP',
    '2024-12-03T08:54:24',
    ( '' ),
    ( '' ),
    'SwSTEP 2.0',
    'SolidWorks 2024',
    '' );
FILE_SCHEMA (( 'AUTOMOTIVE_DESIGN' ));
ENDSEC;

DATA;
#1 = CARTESIAN_POINT ( 'NONE',  ( -13.00000000000000000, 13.00000000000000000, 1000.000000000000000 ) ) ;
#2 = ADVANCED_FACE ( 'NONE', ( #160 ), #23, .T. ) ;
#3 = PRESENTATION_LAYER_ASSIGNMENT (  '', '', ( #284 ) ) ;
#4 = DIRECTION ( 'NONE',  ( 1.000000000000000000, 0.000000000000000000, 0.000000000000000000 ) ) ;
#5 = ORIENTED_EDGE ( 'NONE', *, *, #219, .T. ) ;
#6 = CARTESIAN_POINT ( 'NONE',  ( -13.00000000000000000, -13.00000000000000000, 0.000000000000000000 ) ) ;
#7 = ORIENTED_EDGE ( 'NONE', *, *, #277, .F. ) ;
#8 = VECTOR ( 'NONE', #204, 1000.000000000000000 ) ;
#9 = DIRECTION ( 'NONE',  ( 0.000000000000000000, 0.000000000000000000, -1.000000000000000000 ) ) ;
#10 = ORIENTED_EDGE ( 'NONE', *, *, #219, .F. ) ;
#11 = CARTESIAN_POINT ( 'NONE',  ( -15.00000000000000000, 15.00000000000000000, 1000.000000000000000 ) ) ;
#12 = LINE ( 'NONE', #99, #133 ) ;
#13 = ORIENTED_EDGE ( 'NONE', *, *, #30, .T. ) ;
#14 = DIRECTION ( 'NONE',  ( 0.000000000000000000, 0.000000000000000000, 1.000000000000000000 ) ) ;
#15 = VECTOR ( 'NONE', #27, 1000.000000000000000 ) ;
#16 = EDGE_LOOP ( 'NONE', ( #126, #246, #262, #49 ) ) ;
#17 =( NAMED_UNIT ( * ) PLANE_ANGLE_UNIT ( ) SI_UNIT ( $, .RADIAN. ) );
#18 = ORIENTED_EDGE ( 'NONE', *, *, #247, .T. ) ;
#19 = EDGE_CURVE ( 'NONE', #286, #325, #358, .T. ) ;
#20 = DIRECTION ( 'NONE',  ( 1.000000000000000000, 0.000000000000000000, 0.000000000000000000 ) ) ;
#21 = VERTEX_POINT ( 'NONE', #78 ) ;
#22 = APPLICATION_PROTOCOL_DEFINITION ( 'draft international standard', 'automotive_design', 1998, #228 ) ;
#23 = PLANE ( 'NONE',  #278 ) ;
#24 = AXIS2_PLACEMENT_3D ( 'NONE', #167, #338, #88 ) ;
#25 = CARTESIAN_POINT ( 'NONE',  ( 13.00000000000000533, -13.00000000000000000, 0.000000000000000000 ) ) ;
#26 = ORIENTED_EDGE ( 'NONE', *, *, #98, .F. ) ;
#27 = DIRECTION ( 'NONE',  ( -0.000000000000000000, -1.000000000000000000, -0.000000000000000000 ) ) ;
#28 = MANIFOLD_SOLID_BREP ( '\X2\0411043e0431044b0448043a0430\X0\-\X2\0412044b0442044f043d04430442044c\X0\1', #72 ) ;
#29 = FACE_OUTER_BOUND ( 'NONE', #302, .T. ) ;
#30 = EDGE_CURVE ( 'NONE', #323, #329, #229, .T. ) ;
#31 = COLOUR_RGB ( '',0.7921568627450980005, 0.8196078431372548767, 0.9333333333333333481 ) ;
#32 = CARTESIAN_POINT ( 'NONE',  ( -13.00000000000000000, -13.00000000000000000, 1000.000000000000000 ) ) ;
#33 = EDGE_CURVE ( 'NONE', #316, #350, #240, .T. ) ;
#34 = DIRECTION ( 'NONE',  ( 0.000000000000000000, 1.000000000000000000, 0.000000000000000000 ) ) ;
#35 = DIRECTION ( 'NONE',  ( 0.000000000000000000, -1.000000000000000000, 0.000000000000000000 ) ) ;
#36 = UNCERTAINTY_MEASURE_WITH_UNIT (LENGTH_MEASURE( 1.000000000000000082E-05 ), #248, 'distance_accuracy_value', 'NONE');
#37 = DIRECTION ( 'NONE',  ( -0.000000000000000000, -0.000000000000000000, -1.000000000000000000 ) ) ;
#38 = PLANE ( 'NONE',  #123 ) ;
#39 = LINE ( 'NONE', #291, #145 ) ;
#40 = CARTESIAN_POINT ( 'NONE',  ( 13.00000000000000533, -13.00000000000000000, 1000.000000000000000 ) ) ;
#41 = EDGE_CURVE ( 'NONE', #231, #288, #251, .T. ) ;
#42 = CARTESIAN_POINT ( 'NONE',  ( 0.000000000000000000, 0.000000000000000000, 0.000000000000000000 ) ) ;
#43 = ORIENTED_EDGE ( 'NONE', *, *, #119, .T. ) ;
#44 = VECTOR ( 'NONE', #280, 1000.000000000000000 ) ;
#45 = FILL_AREA_STYLE ('',( #212 ) ) ;
#46 = DIRECTION ( 'NONE',  ( -0.000000000000000000, -0.000000000000000000, -1.000000000000000000 ) ) ;
#47 = PRESENTATION_STYLE_ASSIGNMENT (( #298 ) ) ;
#48 = APPLICATION_PROTOCOL_DEFINITION ( 'draft international standard', 'automotive_design', 1998, #116 ) ;
#49 = ORIENTED_EDGE ( 'NONE', *, *, #310, .T. ) ;
#50 = PRODUCT_CONTEXT ( 'NONE', #100, 'mechanical' ) ;
#51 = ORIENTED_EDGE ( 'NONE', *, *, #19, .F. ) ;
#52 = VECTOR ( 'NONE', #327, 1000.000000000000000 ) ;
#53 = EDGE_CURVE ( 'NONE', #323, #163, #225, .T. ) ;
#54 = DIRECTION ( 'NONE',  ( 0.000000000000000000, -0.000000000000000000, -1.000000000000000000 ) ) ;
#55 = APPLICATION_PROTOCOL_DEFINITION ( 'draft international standard', 'automotive_design', 1998, #56 ) ;
#56 = APPLICATION_CONTEXT ( 'automotive_design' ) ;
#57 = CARTESIAN_POINT ( 'NONE',  ( -15.00000000000000000, 15.00000000000000000, 1000.000000000000000 ) ) ;
#58 = VECTOR ( 'NONE', #342, 1000.000000000000000 ) ;
#59 = PRODUCT_DEFINITION_SHAPE ( 'NONE', 'NONE',  #297 ) ;
#60 = DIRECTION ( 'NONE',  ( -1.000000000000000000, 0.000000000000000000, -0.000000000000000000 ) ) ;
#61 = SHAPE_DEFINITION_REPRESENTATION ( #141, #94 ) ;
#62 = CARTESIAN_POINT ( 'NONE',  ( -13.00000000000000000, -13.00000000000000000, 1000.000000000000000 ) ) ;
#63 = PRODUCT_DEFINITION_CONTEXT ( 'detailed design', #56, 'design' ) ;
#64 = VECTOR ( 'NONE', #333, 1000.000000000000000 ) ;
#65 = AXIS2_PLACEMENT_3D ( 'NONE', #265, #106, #20 ) ;
#66 = CARTESIAN_POINT ( 'NONE',  ( -13.00000000000000000, -13.00000000000000000, 0.000000000000000000 ) ) ;
#67 = VERTEX_POINT ( 'NONE', #223 ) ;
#68 = DIRECTION ( 'NONE',  ( -6.672013369141566696E-17, -1.000000000000000000, 0.000000000000000000 ) ) ;
#69 = PLANE ( 'NONE',  #168 ) ;
#70 = ORIENTED_EDGE ( 'NONE', *, *, #351, .T. ) ;
#71 = ADVANCED_FACE ( 'NONE', ( #144 ), #332, .F. ) ;
#72 = CLOSED_SHELL ( 'NONE', ( #134, #273, #71, #86, #209, #82, #158, #238, #108, #2 ) ) ;
#73 = DIRECTION ( 'NONE',  ( -0.000000000000000000, -1.000000000000000000, -0.000000000000000000 ) ) ;
#74 = EDGE_LOOP ( 'NONE', ( #81, #328, #215, #314 ) ) ;
#75 = ORIENTED_EDGE ( 'NONE', *, *, #154, .F. ) ;
#76 = DIRECTION ( 'NONE',  ( 0.000000000000000000, 0.000000000000000000, 1.000000000000000000 ) ) ;
#77 = AXIS2_PLACEMENT_3D ( 'NONE', #197, #307, #60 ) ;
#78 = CARTESIAN_POINT ( 'NONE',  ( 13.00000000000000711, 12.99999999999999822, 0.000000000000000000 ) ) ;
#79 = VERTEX_POINT ( 'NONE', #282 ) ;
#80 = CARTESIAN_POINT ( 'NONE',  ( -13.00000000000000000, 13.00000000000000000, 0.000000000000000000 ) ) ;
#81 = ORIENTED_EDGE ( 'NONE', *, *, #257, .F. ) ;
#82 = ADVANCED_FACE ( 'NONE', ( #194 ), #85, .F. ) ;
#83 = ORIENTED_EDGE ( 'NONE', *, *, #30, .F. ) ;
#84 = CARTESIAN_POINT ( 'NONE',  ( -15.00000000000000000, 15.00000000000000000, 0.000000000000000000 ) ) ;
#85 = PLANE ( 'NONE',  #305 ) ;
#86 = ADVANCED_FACE ( 'NONE', ( #196 ), #336, .F. ) ;
#87 = LINE ( 'NONE', #169, #44 ) ;
#88 = DIRECTION ( 'NONE',  ( 0.000000000000000000, 0.000000000000000000, 1.000000000000000000 ) ) ;
#89 = CARTESIAN_POINT ( 'NONE',  ( -15.00000000000000000, -15.00000000000000000, 1000.000000000000000 ) ) ;
#90 = CARTESIAN_POINT ( 'NONE',  ( 15.00000000000000000, -15.00000000000000000, 0.000000000000000000 ) ) ;
#91 = VECTOR ( 'NONE', #37, 1000.000000000000000 ) ;
#92 = PRODUCT_DEFINITION ( 'UNKNOWN', '', #156, #63 ) ;
#93 = AXIS2_PLACEMENT_3D ( 'NONE', #186, #184, #244 ) ;
#94 = SHAPE_REPRESENTATION ( 'PS30S2 \X2\041f0440043e04440438043b044c\X0\ \X2\0430043b044e043c0438043d043804350432044b0439\X0\, \X2\043a043204300434044004300442\X0\ 30x30x2 (\X2\041104350437\X0\ \X2\043f043e043a0440044b04420438044f\X0\)_00', ( #93 ), #112 ) ;
#95 = CARTESIAN_POINT ( 'NONE',  ( -15.00000000000000000, -15.00000000000000000, 0.000000000000000000 ) ) ;
#96 = ORIENTED_EDGE ( 'NONE', *, *, #98, .T. ) ;
#97 = CARTESIAN_POINT ( 'NONE',  ( 15.00000000000000000, 15.00000000000000000, 1000.000000000000000 ) ) ;
#98 = EDGE_CURVE ( 'NONE', #67, #213, #164, .T. ) ;
#99 = CARTESIAN_POINT ( 'NONE',  ( 15.00000000000000000, -15.00000000000000000, 0.000000000000000000 ) ) ;
#100 = APPLICATION_CONTEXT ( 'automotive_design' ) ;
#101 = CARTESIAN_POINT ( 'NONE',  ( 15.00000000000000000, 15.00000000000000000, 1000.000000000000000 ) ) ;
#102 = LINE ( 'NONE', #178, #91 ) ;
#103 = EDGE_LOOP ( 'NONE', ( #270, #7, #51, #294 ) ) ;
#104 = VECTOR ( 'NONE', #289, 1000.000000000000000 ) ;
#105 = ORIENTED_EDGE ( 'NONE', *, *, #326, .F. ) ;
#106 = DIRECTION ( 'NONE',  ( 0.000000000000000000, 0.000000000000000000, 1.000000000000000000 ) ) ;
#107 = EDGE_LOOP ( 'NONE', ( #241, #10, #105, #177 ) ) ;
#108 = ADVANCED_FACE ( 'NONE', ( #142 ), #308, .T. ) ;
#109 = DIRECTION ( 'NONE',  ( -1.000000000000000000, 6.672013369141564231E-17, -0.000000000000000000 ) ) ;
#110 = DIRECTION ( 'NONE',  ( 0.000000000000000000, 1.000000000000000000, 0.000000000000000000 ) ) ;
#111 =( GEOMETRIC_REPRESENTATION_CONTEXT ( 3 ) GLOBAL_UNCERTAINTY_ASSIGNED_CONTEXT ( ( #36 ) ) GLOBAL_UNIT_ASSIGNED_CONTEXT ( ( #248, #115, #118 ) ) REPRESENTATION_CONTEXT ( 'NONE', 'WORKASPACE' ) );
#112 =( GEOMETRIC_REPRESENTATION_CONTEXT ( 3 ) GLOBAL_UNCERTAINTY_ASSIGNED_CONTEXT ( ( #224 ) ) GLOBAL_UNIT_ASSIGNED_CONTEXT ( ( #347, #17, #272 ) ) REPRESENTATION_CONTEXT ( 'NONE', 'WORKASPACE' ) );
#113 = EDGE_CURVE ( 'NONE', #286, #21, #87, .T. ) ;
#114 = FACE_BOUND ( 'NONE', #103, .T. ) ;
#115 =( NAMED_UNIT ( * ) PLANE_ANGLE_UNIT ( ) SI_UNIT ( $, .RADIAN. ) );
#116 = APPLICATION_CONTEXT ( 'automotive_design' ) ;
#117 = VECTOR ( 'NONE', #230, 1000.000000000000000 ) ;
#118 =( NAMED_UNIT ( * ) SI_UNIT ( $, .STERADIAN. ) SOLID_ANGLE_UNIT ( ) );
#119 = EDGE_CURVE ( 'NONE', #259, #231, #331, .T. ) ;
#120 = CARTESIAN_POINT ( 'NONE',  ( 15.00000000000000000, 15.00000000000000000, 0.000000000000000000 ) ) ;
#121 = PLANE ( 'NONE',  #202 ) ;
#122 = ORIENTED_EDGE ( 'NONE', *, *, #119, .F. ) ;
#123 = AXIS2_PLACEMENT_3D ( 'NONE', #312, #147, #344 ) ;
#124 = LINE ( 'NONE', #254, #104 ) ;
#125 = LINE ( 'NONE', #207, #208 ) ;
#126 = ORIENTED_EDGE ( 'NONE', *, *, #341, .F. ) ;
#127 = FACE_OUTER_BOUND ( 'NONE', #107, .T. ) ;
#128 = DIRECTION ( 'NONE',  ( 6.672013369141566696E-17, 1.000000000000000000, 0.000000000000000000 ) ) ;
#129 = CARTESIAN_POINT ( 'NONE',  ( -13.00000000000000000, 13.00000000000000000, 1000.000000000000000 ) ) ;
#130 = ORIENTED_EDGE ( 'NONE', *, *, #154, .T. ) ;
#131 =( LENGTH_UNIT ( ) NAMED_UNIT ( * ) SI_UNIT ( .MILLI., .METRE. ) );
#132 = VERTEX_POINT ( 'NONE', #359 ) ;
#133 = VECTOR ( 'NONE', #146, 1000.000000000000000 ) ;
#134 = ADVANCED_FACE ( 'NONE', ( #29, #114 ), #139, .F. ) ;
#135 = DIRECTION ( 'NONE',  ( 0.000000000000000000, 0.000000000000000000, -1.000000000000000000 ) ) ;
#136 = LINE ( 'NONE', #267, #355 ) ;
#137 = DIRECTION ( 'NONE',  ( 1.000000000000000000, 0.000000000000000000, 0.000000000000000000 ) ) ;
#138 = DIRECTION ( 'NONE',  ( -6.672013369141564231E-17, -1.000000000000000000, 0.000000000000000000 ) ) ;
#139 = PLANE ( 'NONE',  #77 ) ;
#140 = VECTOR ( 'NONE', #157, 1000.000000000000000 ) ;
#141 = PRODUCT_DEFINITION_SHAPE ( 'NONE', 'NONE',  #92 ) ;
#142 = FACE_OUTER_BOUND ( 'NONE', #16, .T. ) ;
#143 = CARTESIAN_POINT ( 'NONE',  ( -15.00000000000000000, 15.00000000000000000, 1000.000000000000000 ) ) ;
#144 = FACE_OUTER_BOUND ( 'NONE', #211, .T. ) ;
#145 = VECTOR ( 'NONE', #255, 1000.000000000000000 ) ;
#146 = DIRECTION ( 'NONE',  ( 0.000000000000000000, 1.000000000000000000, 0.000000000000000000 ) ) ;
#147 = DIRECTION ( 'NONE',  ( 0.000000000000000000, 1.000000000000000000, 0.000000000000000000 ) ) ;
#148 = EDGE_CURVE ( 'NONE', #261, #231, #281, .T. ) ;
#149 = DIRECTION ( 'NONE',  ( 1.000000000000000000, 0.000000000000000000, 0.000000000000000000 ) ) ;
#150 = EDGE_LOOP ( 'NONE', ( #75, #353, #234, #122 ) ) ;
#151 = CARTESIAN_POINT ( 'NONE',  ( 15.00000000000000000, -15.00000000000000000, 1000.000000000000000 ) ) ;
#152 = CARTESIAN_POINT ( 'NONE',  ( 13.00000000000000711, 12.99999999999999822, 1000.000000000000000 ) ) ;
#153 = CARTESIAN_POINT ( 'NONE',  ( -13.00000000000000000, -13.00000000000000000, 1000.000000000000000 ) ) ;
#154 = EDGE_CURVE ( 'NONE', #163, #259, #12, .T. ) ;
#155 = VECTOR ( 'NONE', #201, 1000.000000000000000 ) ;
#156 = PRODUCT_DEFINITION_FORMATION_WITH_SPECIFIED_SOURCE ( 'ANY', '', #214, .NOT_KNOWN. ) ;
#157 = DIRECTION ( 'NONE',  ( -1.000000000000000000, 6.672013369141564231E-17, -0.000000000000000000 ) ) ;
#158 = ADVANCED_FACE ( 'NONE', ( #182 ), #38, .T. ) ;
#159 = SURFACE_STYLE_FILL_AREA ( #45 ) ;
#160 = FACE_OUTER_BOUND ( 'NONE', #357, .T. ) ;
#161 = EDGE_LOOP ( 'NONE', ( #292, #218, #245, #5 ) ) ;
#162 = DIRECTION ( 'NONE',  ( 1.000000000000000000, 0.000000000000000000, 0.000000000000000000 ) ) ;
#163 = VERTEX_POINT ( 'NONE', #90 ) ;
#164 = LINE ( 'NONE', #275, #15 ) ;
#165 = DIRECTION ( 'NONE',  ( 0.000000000000000000, -0.000000000000000000, 1.000000000000000000 ) ) ;
#166 = CONTEXT_DEPENDENT_SHAPE_REPRESENTATION ( #304, #279 ) ;
#167 = CARTESIAN_POINT ( 'NONE',  ( 15.00000000000000000, -15.00000000000000000, 1000.000000000000000 ) ) ;
#168 = AXIS2_PLACEMENT_3D ( 'NONE', #40, #232, #68 ) ;
#169 = CARTESIAN_POINT ( 'NONE',  ( 13.00000000000000711, 12.99999999999999822, 1000.000000000000000 ) ) ;
#170 = ADVANCED_BREP_SHAPE_REPRESENTATION ( '', ( #28, #93 ), #112 ) ;
#171 = EDGE_CURVE ( 'NONE', #329, #259, #173, .T. ) ;
#172 = CARTESIAN_POINT ( 'NONE',  ( -15.00000000000000000, -15.00000000000000000, 0.000000000000000000 ) ) ;
#173 = LINE ( 'NONE', #97, #271 ) ;
#174 = AXIS2_PLACEMENT_3D ( 'NONE', #57, #35, #54 ) ;
#175 = VECTOR ( 'NONE', #276, 1000.000000000000000 ) ;
#176 = FACE_OUTER_BOUND ( 'NONE', #243, .T. ) ;
#177 = ORIENTED_EDGE ( 'NONE', *, *, #148, .T. ) ;
#178 = CARTESIAN_POINT ( 'NONE',  ( -13.00000000000000000, 13.00000000000000000, 1000.000000000000000 ) ) ;
#179 = ORIENTED_EDGE ( 'NONE', *, *, #113, .T. ) ;
#180 = CARTESIAN_POINT ( 'NONE',  ( -13.00000000000000000, -13.00000000000000000, 1000.000000000000000 ) ) ;
#181 = AXIS2_PLACEMENT_3D ( 'NONE', #1, #138, #221 ) ;
#182 = FACE_OUTER_BOUND ( 'NONE', #74, .T. ) ;
#183 = SHAPE_REPRESENTATION ( '\X2\04210431043e0440043a0430\X0\1', ( #313, #65 ), #264 ) ;
#184 = DIRECTION ( 'NONE',  ( 0.000000000000000000, 0.000000000000000000, 1.000000000000000000 ) ) ;
#185 = ORIENTED_EDGE ( 'NONE', *, *, #341, .T. ) ;
#186 = CARTESIAN_POINT ( 'NONE',  ( 0.000000000000000000, 0.000000000000000000, 0.000000000000000000 ) ) ;
#187 = ORIENTED_EDGE ( 'NONE', *, *, #148, .F. ) ;
#188 =( NAMED_UNIT ( * ) PLANE_ANGLE_UNIT ( ) SI_UNIT ( $, .RADIAN. ) );
#189 = SURFACE_SIDE_STYLE ('',( #159 ) ) ;
#190 = CARTESIAN_POINT ( 'NONE',  ( 0.000000000000000000, 0.000000000000000000, 0.000000000000000000 ) ) ;
#191 = ORIENTED_EDGE ( 'NONE', *, *, #310, .F. ) ;
#192 = APPLICATION_PROTOCOL_DEFINITION ( 'draft international standard', 'automotive_design', 1998, #100 ) ;
#193 = ORIENTED_EDGE ( 'NONE', *, *, #257, .T. ) ;
#194 = FACE_OUTER_BOUND ( 'NONE', #161, .T. ) ;
#195 = PRODUCT ( '\X2\04210431043e0440043a0430\X0\1', '\X2\04210431043e0440043a0430\X0\1', '', ( #269 ) ) ;
#196 = FACE_OUTER_BOUND ( 'NONE', #217, .T. ) ;
#197 = CARTESIAN_POINT ( 'NONE',  ( 0.000000000000000000, 0.000000000000000000, 1000.000000000000000 ) ) ;
#198 = EDGE_CURVE ( 'NONE', #79, #323, #206, .T. ) ;
#199 = CARTESIAN_POINT ( 'NONE',  ( 15.00000000000000000, -15.00000000000000000, 1000.000000000000000 ) ) ;
#200 = CARTESIAN_POINT ( 'NONE',  ( -13.00000000000000000, -13.00000000000000000, 1000.000000000000000 ) ) ;
#201 = DIRECTION ( 'NONE',  ( -0.000000000000000000, -0.000000000000000000, -1.000000000000000000 ) ) ;
#202 = AXIS2_PLACEMENT_3D ( 'NONE', #42, #9, #256 ) ;
#203 = PRODUCT_DEFINITION_FORMATION_WITH_SPECIFIED_SOURCE ( 'ANY', '', #195, .NOT_KNOWN. ) ;
#204 = DIRECTION ( 'NONE',  ( -0.000000000000000000, -0.000000000000000000, -1.000000000000000000 ) ) ;
#205 = ORIENTED_EDGE ( 'NONE', *, *, #349, .F. ) ;
#206 = LINE ( 'NONE', #285, #117 ) ;
#207 = CARTESIAN_POINT ( 'NONE',  ( -15.00000000000000000, -15.00000000000000000, 1000.000000000000000 ) ) ;
#208 = VECTOR ( 'NONE', #73, 1000.000000000000000 ) ;
#209 = ADVANCED_FACE ( 'NONE', ( #127 ), #239, .F. ) ;
#210 = CARTESIAN_POINT ( 'NONE',  ( 13.00000000000000533, -13.00000000000000000, 1000.000000000000000 ) ) ;
#211 = EDGE_LOOP ( 'NONE', ( #130, #340, #83, #268 ) ) ;
#212 = FILL_AREA_STYLE_COLOUR ( '', #31 ) ;
#213 = VERTEX_POINT ( 'NONE', #66 ) ;
#214 = PRODUCT ( 'PS30S2 \X2\041f0440043e04440438043b044c\X0\ \X2\0430043b044e043c0438043d043804350432044b0439\X0\, \X2\043a043204300434044004300442\X0\ 30x30x2 (\X2\041104350437\X0\ \X2\043f043e043a0440044b04420438044f\X0\)_00', 'PS30S2 \X2\041f0440043e04440438043b044c\X0\ \X2\0430043b044e043c0438043d043804350432044b0439\X0\, \X2\043a043204300434044004300442\X0\ 30x30x2 (\X2\041104350437\X0\ \X2\043f043e043a0440044b04420438044f\X0\)_00', '', ( #50 ) ) ;
#215 = ORIENTED_EDGE ( 'NONE', *, *, #33, .T. ) ;
#216 = SHAPE_DEFINITION_REPRESENTATION ( #59, #183 ) ;
#217 = EDGE_LOOP ( 'NONE', ( #43, #187, #346, #354 ) ) ;
#218 = ORIENTED_EDGE ( 'NONE', *, *, #53, .F. ) ;
#219 = EDGE_CURVE ( 'NONE', #79, #288, #39, .T. ) ;
#220 = AXIS2_PLACEMENT_3D ( 'NONE', #352, #76, #356 ) ;
#221 = DIRECTION ( 'NONE',  ( 1.000000000000000000, -6.672013369141564231E-17, 0.000000000000000000 ) ) ;
#222 = PRODUCT_RELATED_PRODUCT_CATEGORY ( 'part', '', ( #195 ) ) ;
#223 = CARTESIAN_POINT ( 'NONE',  ( -13.00000000000000000, 13.00000000000000000, 0.000000000000000000 ) ) ;
#224 = UNCERTAINTY_MEASURE_WITH_UNIT (LENGTH_MEASURE( 1.000000000000000082E-05 ), #347, 'distance_accuracy_value', 'NONE');
#225 = LINE ( 'NONE', #250, #330 ) ;
#226 = DIRECTION ( 'NONE',  ( -0.000000000000000000, -0.000000000000000000, -1.000000000000000000 ) ) ;
#227 = VECTOR ( 'NONE', #109, 1000.000000000000000 ) ;
#228 = APPLICATION_CONTEXT ( 'automotive_design' ) ;
#229 = LINE ( 'NONE', #199, #290 ) ;
#230 = DIRECTION ( 'NONE',  ( 1.000000000000000000, 0.000000000000000000, 0.000000000000000000 ) ) ;
#231 = VERTEX_POINT ( 'NONE', #319 ) ;
#232 = DIRECTION ( 'NONE',  ( -1.000000000000000000, 6.672013369141566696E-17, 0.000000000000000000 ) ) ;
#233 = MECHANICAL_DESIGN_GEOMETRIC_PRESENTATION_REPRESENTATION (  '', ( #284 ), #111 ) ;
#234 = ORIENTED_EDGE ( 'NONE', *, *, #41, .F. ) ;
#235 = LINE ( 'NONE', #6, #295 ) ;
#236 = FACE_OUTER_BOUND ( 'NONE', #150, .T. ) ;
#237 = EDGE_LOOP ( 'NONE', ( #96, #193, #321, #185 ) ) ;
#238 = ADVANCED_FACE ( 'NONE', ( #176 ), #69, .T. ) ;
#239 = PLANE ( 'NONE',  #335 ) ;
#240 = LINE ( 'NONE', #32, #64 ) ;
#241 = ORIENTED_EDGE ( 'NONE', *, *, #41, .T. ) ;
#242 =( NAMED_UNIT ( * ) SI_UNIT ( $, .STERADIAN. ) SOLID_ANGLE_UNIT ( ) );
#243 = EDGE_LOOP ( 'NONE', ( #205, #299, #70, #179 ) ) ;
#244 = DIRECTION ( 'NONE',  ( 1.000000000000000000, 0.000000000000000000, 0.000000000000000000 ) ) ;
#245 = ORIENTED_EDGE ( 'NONE', *, *, #198, .F. ) ;
#246 = ORIENTED_EDGE ( 'NONE', *, *, #113, .F. ) ;
#247 = EDGE_CURVE ( 'NONE', #316, #213, #315, .T. ) ;
#248 =( LENGTH_UNIT ( ) NAMED_UNIT ( * ) SI_UNIT ( .MILLI., .METRE. ) );
#249 = VECTOR ( 'NONE', #345, 1000.000000000000000 ) ;
#250 = CARTESIAN_POINT ( 'NONE',  ( 15.00000000000000000, -15.00000000000000000, 1000.000000000000000 ) ) ;
#251 = LINE ( 'NONE', #172, #175 ) ;
#252 = DIRECTION ( 'NONE',  ( -1.000000000000000000, -0.000000000000000000, -0.000000000000000000 ) ) ;
#253 = VECTOR ( 'NONE', #128, 1000.000000000000000 ) ;
#254 = CARTESIAN_POINT ( 'NONE',  ( -15.00000000000000000, 15.00000000000000000, 1000.000000000000000 ) ) ;
#255 = DIRECTION ( 'NONE',  ( -0.000000000000000000, -0.000000000000000000, -1.000000000000000000 ) ) ;
#256 = DIRECTION ( 'NONE',  ( -1.000000000000000000, 0.000000000000000000, -0.000000000000000000 ) ) ;
#257 = EDGE_CURVE ( 'NONE', #213, #132, #235, .T. ) ;
#258 = CARTESIAN_POINT ( 'NONE',  ( -13.00000000000000000, 13.00000000000000000, 1000.000000000000000 ) ) ;
#259 = VERTEX_POINT ( 'NONE', #120 ) ;
#260 = FACE_BOUND ( 'NONE', #237, .T. ) ;
#261 = VERTEX_POINT ( 'NONE', #11 ) ;
#262 = ORIENTED_EDGE ( 'NONE', *, *, #19, .T. ) ;
#263 = VECTOR ( 'NONE', #252, 1000.000000000000000 ) ;
#264 =( GEOMETRIC_REPRESENTATION_CONTEXT ( 3 ) GLOBAL_UNCERTAINTY_ASSIGNED_CONTEXT ( ( #309 ) ) GLOBAL_UNIT_ASSIGNED_CONTEXT ( ( #131, #188, #242 ) ) REPRESENTATION_CONTEXT ( 'NONE', 'WORKASPACE' ) );
#265 = CARTESIAN_POINT ( 'NONE',  ( 996.7489301358025386, 1006.409766940549389, 496.8423446063967504 ) ) ;
#266 = ORIENTED_EDGE ( 'NONE', *, *, #317, .T. ) ;
#267 = CARTESIAN_POINT ( 'NONE',  ( 13.00000000000000533, -13.00000000000000000, 1000.000000000000000 ) ) ;
#268 = ORIENTED_EDGE ( 'NONE', *, *, #53, .T. ) ;
#269 = PRODUCT_CONTEXT ( 'NONE', #116, 'mechanical' ) ;
#270 = ORIENTED_EDGE ( 'NONE', *, *, #33, .F. ) ;
#271 = VECTOR ( 'NONE', #339, 1000.000000000000000 ) ;
#272 =( NAMED_UNIT ( * ) SI_UNIT ( $, .STERADIAN. ) SOLID_ANGLE_UNIT ( ) );
#273 = ADVANCED_FACE ( 'NONE', ( #236, #260 ), #121, .T. ) ;
#274 = ORIENTED_EDGE ( 'NONE', *, *, #198, .T. ) ;
#275 = CARTESIAN_POINT ( 'NONE',  ( -13.00000000000000000, -13.00000000000000000, 0.000000000000000000 ) ) ;
#276 = DIRECTION ( 'NONE',  ( -0.000000000000000000, -1.000000000000000000, -0.000000000000000000 ) ) ;
#277 = EDGE_CURVE ( 'NONE', #325, #316, #311, .T. ) ;
#278 = AXIS2_PLACEMENT_3D ( 'NONE', #153, #137, #135 ) ;
#279 = PRODUCT_DEFINITION_SHAPE ( 'NONE', 'NONE',  #360 ) ;
#280 = DIRECTION ( 'NONE',  ( -0.000000000000000000, -0.000000000000000000, -1.000000000000000000 ) ) ;
#281 = LINE ( 'NONE', #143, #155 ) ;
#282 = CARTESIAN_POINT ( 'NONE',  ( -15.00000000000000000, -15.00000000000000000, 1000.000000000000000 ) ) ;
#283 = LINE ( 'NONE', #95, #249 ) ;
#284 = STYLED_ITEM ( 'NONE', ( #47 ), #28 ) ;
#285 = CARTESIAN_POINT ( 'NONE',  ( -15.00000000000000000, -15.00000000000000000, 1000.000000000000000 ) ) ;
#286 = VERTEX_POINT ( 'NONE', #152 ) ;
#287 = CARTESIAN_POINT ( 'NONE',  ( -15.00000000000000000, -15.00000000000000000, 0.000000000000000000 ) ) ;
#288 = VERTEX_POINT ( 'NONE', #287 ) ;
#289 = DIRECTION ( 'NONE',  ( -1.000000000000000000, -0.000000000000000000, -0.000000000000000000 ) ) ;
#290 = VECTOR ( 'NONE', #110, 1000.000000000000000 ) ;
#291 = CARTESIAN_POINT ( 'NONE',  ( -15.00000000000000000, -15.00000000000000000, 1000.000000000000000 ) ) ;
#292 = ORIENTED_EDGE ( 'NONE', *, *, #300, .T. ) ;
#293 = SHAPE_REPRESENTATION_RELATIONSHIP ( 'NONE' , 'NONE' ,  #94, #170 ) ;
#294 = ORIENTED_EDGE ( 'NONE', *, *, #351, .F. ) ;
#295 = VECTOR ( 'NONE', #4, 1000.000000000000000 ) ;
#296 = LINE ( 'NONE', #80, #140 ) ;
#297 = PRODUCT_DEFINITION ( 'UNKNOWN', '', #203, #334 ) ;
#298 = SURFACE_STYLE_USAGE ( .BOTH. , #189 ) ;
#299 = ORIENTED_EDGE ( 'NONE', *, *, #337, .F. ) ;
#300 = EDGE_CURVE ( 'NONE', #288, #163, #283, .T. ) ;
#301 = LINE ( 'NONE', #25, #52 ) ;
#302 = EDGE_LOOP ( 'NONE', ( #13, #266, #343, #274 ) ) ;
#303 = CARTESIAN_POINT ( 'NONE',  ( -15.00000000000000000, -15.00000000000000000, 1000.000000000000000 ) ) ;
#304 =( REPRESENTATION_RELATIONSHIP ('NONE','NONE', #183, #94 ) REPRESENTATION_RELATIONSHIP_WITH_TRANSFORMATION ( #306 )SHAPE_REPRESENTATION_RELATIONSHIP( ) );
#305 = AXIS2_PLACEMENT_3D ( 'NONE', #303, #34, #165 ) ;
#306 = ITEM_DEFINED_TRANSFORMATION ( 'NONE', 'NONE', #65,  #93 ) ;
#307 = DIRECTION ( 'NONE',  ( 0.000000000000000000, 0.000000000000000000, -1.000000000000000000 ) ) ;
#308 = PLANE ( 'NONE',  #181 ) ;
#309 = UNCERTAINTY_MEASURE_WITH_UNIT (LENGTH_MEASURE( 1.000000000000000082E-05 ), #131, 'distance_accuracy_value', 'NONE');
#310 = EDGE_CURVE ( 'NONE', #325, #67, #102, .T. ) ;
#311 = LINE ( 'NONE', #62, #58 ) ;
#312 = CARTESIAN_POINT ( 'NONE',  ( -13.00000000000000000, -13.00000000000000000, 1000.000000000000000 ) ) ;
#313 = AXIS2_PLACEMENT_3D ( 'NONE', #190, #14, #162 ) ;
#314 = ORIENTED_EDGE ( 'NONE', *, *, #337, .T. ) ;
#315 = LINE ( 'NONE', #200, #8 ) ;
#316 = VERTEX_POINT ( 'NONE', #180 ) ;
#317 = EDGE_CURVE ( 'NONE', #329, #261, #124, .T. ) ;
#318 = DIRECTION ( 'NONE',  ( 0.000000000000000000, 0.000000000000000000, -1.000000000000000000 ) ) ;
#319 = CARTESIAN_POINT ( 'NONE',  ( -15.00000000000000000, 15.00000000000000000, 0.000000000000000000 ) ) ;
#320 = LINE ( 'NONE', #210, #253 ) ;
#321 = ORIENTED_EDGE ( 'NONE', *, *, #349, .T. ) ;
#322 = PRODUCT_RELATED_PRODUCT_CATEGORY ( 'part', '', ( #214 ) ) ;
#323 = VERTEX_POINT ( 'NONE', #151 ) ;
#324 = CARTESIAN_POINT ( 'NONE',  ( 13.00000000000000533, -13.00000000000000000, 1000.000000000000000 ) ) ;
#325 = VERTEX_POINT ( 'NONE', #258 ) ;
#326 = EDGE_CURVE ( 'NONE', #261, #79, #125, .T. ) ;
#327 = DIRECTION ( 'NONE',  ( 6.672013369141566696E-17, 1.000000000000000000, 0.000000000000000000 ) ) ;
#328 = ORIENTED_EDGE ( 'NONE', *, *, #247, .F. ) ;
#329 = VERTEX_POINT ( 'NONE', #101 ) ;
#330 = VECTOR ( 'NONE', #226, 1000.000000000000000 ) ;
#331 = LINE ( 'NONE', #84, #263 ) ;
#332 = PLANE ( 'NONE',  #24 ) ;
#333 = DIRECTION ( 'NONE',  ( 1.000000000000000000, 0.000000000000000000, 0.000000000000000000 ) ) ;
#334 = PRODUCT_DEFINITION_CONTEXT ( 'detailed design', #228, 'design' ) ;
#335 = AXIS2_PLACEMENT_3D ( 'NONE', #89, #149, #318 ) ;
#336 = PLANE ( 'NONE',  #174 ) ;
#337 = EDGE_CURVE ( 'NONE', #350, #132, #136, .T. ) ;
#338 = DIRECTION ( 'NONE',  ( -1.000000000000000000, 0.000000000000000000, 0.000000000000000000 ) ) ;
#339 = DIRECTION ( 'NONE',  ( -0.000000000000000000, -0.000000000000000000, -1.000000000000000000 ) ) ;
#340 = ORIENTED_EDGE ( 'NONE', *, *, #171, .F. ) ;
#341 = EDGE_CURVE ( 'NONE', #21, #67, #296, .T. ) ;
#342 = DIRECTION ( 'NONE',  ( -0.000000000000000000, -1.000000000000000000, -0.000000000000000000 ) ) ;
#343 = ORIENTED_EDGE ( 'NONE', *, *, #326, .T. ) ;
#344 = DIRECTION ( 'NONE',  ( 0.000000000000000000, -0.000000000000000000, 1.000000000000000000 ) ) ;
#345 = DIRECTION ( 'NONE',  ( 1.000000000000000000, 0.000000000000000000, 0.000000000000000000 ) ) ;
#346 = ORIENTED_EDGE ( 'NONE', *, *, #317, .F. ) ;
#347 =( LENGTH_UNIT ( ) NAMED_UNIT ( * ) SI_UNIT ( .MILLI., .METRE. ) );
#348 = ORIENTED_EDGE ( 'NONE', *, *, #277, .T. ) ;
#349 = EDGE_CURVE ( 'NONE', #132, #21, #301, .T. ) ;
#350 = VERTEX_POINT ( 'NONE', #324 ) ;
#351 = EDGE_CURVE ( 'NONE', #350, #286, #320, .T. ) ;
#352 = CARTESIAN_POINT ( 'NONE',  ( 0.000000000000000000, 0.000000000000000000, 0.000000000000000000 ) ) ;
#353 = ORIENTED_EDGE ( 'NONE', *, *, #300, .F. ) ;
#354 = ORIENTED_EDGE ( 'NONE', *, *, #171, .T. ) ;
#355 = VECTOR ( 'NONE', #46, 1000.000000000000000 ) ;
#356 = DIRECTION ( 'NONE',  ( 1.000000000000000000, 0.000000000000000000, 0.000000000000000000 ) ) ;
#357 = EDGE_LOOP ( 'NONE', ( #26, #191, #348, #18 ) ) ;
#358 = LINE ( 'NONE', #129, #227 ) ;
#359 = CARTESIAN_POINT ( 'NONE',  ( 13.00000000000000533, -13.00000000000000000, 0.000000000000000000 ) ) ;
#360 = NEXT_ASSEMBLY_USAGE_OCCURRENCE ( 'NAUO1', ' ', ' ', #297, #92, $ ) ;
ENDSEC;
END-ISO-10303-21;
