ISO-10303-21;
HEADER;
FILE_DESCRIPTION (( 'STEP AP214' ),
    '1' );
FILE_NAME ('PR4020S3X Ïðîôèëü àëþìèíèåâûé, ïðÿìîóãîëüíèê 40x20x2 (Áåç ïîêðûòèÿ).STEP',
    '2025-06-23T08:34:15',
    ( '' ),
    ( '' ),
    'SwSTEP 2.0',
    'SolidWorks 2025',
    '' );
FILE_SCHEMA (( 'AUTOMOTIVE_DESIGN' ));
ENDSEC;

DATA;
#1 = FILL_AREA_STYLE ('',( #146 ) ) ;
#2 = LINE ( 'NONE', #152, #141 ) ;
#3 = LINE ( 'NONE', #11, #233 ) ;
#4 = COLOUR_RGB ( '',0.8666666666666666963, 0.9098039215686274384, 1.000000000000000000 ) ;
#5 = LINE ( 'NONE', #178, #257 ) ;
#6 = ADVANCED_BREP_SHAPE_REPRESENTATION ( 'PR4020S3X \X2\041f0440043e04440438043b044c\X0\ \X2\0430043b044e043c0438043d043804350432044b0439\X0\, \X2\043f0440044f043c043e04430433043e043b044c043d0438043a\X0\ 40x20x2 (\X2\041104350437\X0\ \X2\043f043e043a0440044b04420438044f\X0\)', ( #94, #98 ), #69 ) ;
#7 = LINE ( 'NONE', #105, #193 ) ;
#8 = FACE_OUTER_BOUND ( 'NONE', #163, .T. ) ;
#9 = PRODUCT_DEFINITION_CONTEXT ( 'detailed design', #245, 'design' ) ;
#10 = ADVANCED_FACE ( 'NONE', ( #30 ), #157, .T. ) ;
#11 = CARTESIAN_POINT ( 'NONE',  ( -8.000000000000000000, -18.00000000000000355, 1000.000000000000000 ) ) ;
#12 = DIRECTION ( 'NONE',  ( 0.000000000000000000, -0.000000000000000000, 1.000000000000000000 ) ) ;
#13 = DIRECTION ( 'NONE',  ( 0.000000000000000000, 1.000000000000000000, 0.000000000000000000 ) ) ;
#14 = CARTESIAN_POINT ( 'NONE',  ( -10.00000000000000000, -20.00000000000000000, 1000.000000000000000 ) ) ;
#15 = DIRECTION ( 'NONE',  ( -0.000000000000000000, -0.000000000000000000, -1.000000000000000000 ) ) ;
#16 = VECTOR ( 'NONE', #206, 1000.000000000000000 ) ;
#17 = ORIENTED_EDGE ( 'NONE', *, *, #198, .T. ) ;
#18 = EDGE_CURVE ( 'NONE', #22, #102, #2, .T. ) ;
#19 = ORIENTED_EDGE ( 'NONE', *, *, #90, .T. ) ;
#20 = AXIS2_PLACEMENT_3D ( 'NONE', #289, #131, #200 ) ;
#21 = ORIENTED_EDGE ( 'NONE', *, *, #171, .T. ) ;
#22 = VERTEX_POINT ( 'NONE', #132 ) ;
#23 = CARTESIAN_POINT ( 'NONE',  ( -8.000000000000000000, -18.00000000000000355, 0.000000000000000000 ) ) ;
#24 = ORIENTED_EDGE ( 'NONE', *, *, #120, .T. ) ;
#25 = ORIENTED_EDGE ( 'NONE', *, *, #159, .T. ) ;
#26 = DIRECTION ( 'NONE',  ( 0.000000000000000000, 1.000000000000000000, 0.000000000000000000 ) ) ;
#27 = ORIENTED_EDGE ( 'NONE', *, *, #268, .T. ) ;
#28 = ADVANCED_FACE ( 'NONE', ( #135 ), #252, .F. ) ;
#29 = CARTESIAN_POINT ( 'NONE',  ( -8.000000000000000000, 18.00000000000000355, 0.000000000000000000 ) ) ;
#30 = FACE_OUTER_BOUND ( 'NONE', #248, .T. ) ;
#31 = AXIS2_PLACEMENT_3D ( 'NONE', #195, #251, #123 ) ;
#32 = LINE ( 'NONE', #37, #314 ) ;
#33 = CARTESIAN_POINT ( 'NONE',  ( -10.00000000000000000, -20.00000000000000000, 0.000000000000000000 ) ) ;
#34 = CARTESIAN_POINT ( 'NONE',  ( 10.00000000000000000, -20.00000000000000000, 1000.000000000000000 ) ) ;
#35 = EDGE_CURVE ( 'NONE', #96, #44, #3, .T. ) ;
#36 = ORIENTED_EDGE ( 'NONE', *, *, #35, .F. ) ;
#37 = CARTESIAN_POINT ( 'NONE',  ( -8.000000000000000000, -18.00000000000000355, 0.000000000000000000 ) ) ;
#38 = ORIENTED_EDGE ( 'NONE', *, *, #35, .T. ) ;
#39 = DIRECTION ( 'NONE',  ( 1.000000000000000000, 0.000000000000000000, 0.000000000000000000 ) ) ;
#40 = VECTOR ( 'NONE', #246, 1000.000000000000000 ) ;
#41 = DIRECTION ( 'NONE',  ( -0.000000000000000000, -0.000000000000000000, -1.000000000000000000 ) ) ;
#42 = ADVANCED_FACE ( 'NONE', ( #305 ), #205, .T. ) ;
#43 = ORIENTED_EDGE ( 'NONE', *, *, #229, .F. ) ;
#44 = VERTEX_POINT ( 'NONE', #254 ) ;
#45 =( NAMED_UNIT ( * ) PLANE_ANGLE_UNIT ( ) SI_UNIT ( $, .RADIAN. ) );
#46 = PRESENTATION_LAYER_ASSIGNMENT (  '', '', ( #242 ) ) ;
#47 = VECTOR ( 'NONE', #104, 1000.000000000000000 ) ;
#48 = VERTEX_POINT ( 'NONE', #80 ) ;
#49 = ORIENTED_EDGE ( 'NONE', *, *, #171, .F. ) ;
#50 = CARTESIAN_POINT ( 'NONE',  ( 10.00000000000000000, 20.00000000000000000, 1000.000000000000000 ) ) ;
#51 = ORIENTED_EDGE ( 'NONE', *, *, #18, .T. ) ;
#52 =( NAMED_UNIT ( * ) PLANE_ANGLE_UNIT ( ) SI_UNIT ( $, .RADIAN. ) );
#53 = LINE ( 'NONE', #77, #121 ) ;
#54 = EDGE_CURVE ( 'NONE', #22, #96, #227, .T. ) ;
#55 = VERTEX_POINT ( 'NONE', #155 ) ;
#56 = FACE_OUTER_BOUND ( 'NONE', #215, .T. ) ;
#57 = EDGE_LOOP ( 'NONE', ( #36, #63, #169, #223 ) ) ;
#58 = DIRECTION ( 'NONE',  ( -0.000000000000000000, -1.000000000000000000, -0.000000000000000000 ) ) ;
#59 = EDGE_CURVE ( 'NONE', #48, #211, #258, .T. ) ;
#60 = VECTOR ( 'NONE', #269, 1000.000000000000000 ) ;
#61 = LINE ( 'NONE', #311, #274 ) ;
#62 = UNCERTAINTY_MEASURE_WITH_UNIT (LENGTH_MEASURE( 1.000000000000000082E-05 ), #253, 'distance_accuracy_value', 'NONE');
#63 = ORIENTED_EDGE ( 'NONE', *, *, #54, .F. ) ;
#64 = LINE ( 'NONE', #83, #308 ) ;
#65 = CARTESIAN_POINT ( 'NONE',  ( -10.00000000000000000, -20.00000000000000000, 1000.000000000000000 ) ) ;
#66 = CARTESIAN_POINT ( 'NONE',  ( 8.000000000000010658, 18.00000000000000355, 0.000000000000000000 ) ) ;
#67 = LINE ( 'NONE', #106, #16 ) ;
#68 = CARTESIAN_POINT ( 'NONE',  ( 0.000000000000000000, 0.000000000000000000, 0.000000000000000000 ) ) ;
#69 =( GEOMETRIC_REPRESENTATION_CONTEXT ( 3 ) GLOBAL_UNCERTAINTY_ASSIGNED_CONTEXT ( ( #260 ) ) GLOBAL_UNIT_ASSIGNED_CONTEXT ( ( #239, #45, #186 ) ) REPRESENTATION_CONTEXT ( 'NONE', 'WORKASPACE' ) );
#70 = SHAPE_DEFINITION_REPRESENTATION ( #109, #6 ) ;
#71 = ORIENTED_EDGE ( 'NONE', *, *, #302, .T. ) ;
#72 = EDGE_LOOP ( 'NONE', ( #125, #43, #95, #51 ) ) ;
#73 = EDGE_LOOP ( 'NONE', ( #24, #271, #142, #294 ) ) ;
#74 = VERTEX_POINT ( 'NONE', #114 ) ;
#75 = CARTESIAN_POINT ( 'NONE',  ( 8.000000000000010658, -18.00000000000000355, 0.000000000000000000 ) ) ;
#76 = VERTEX_POINT ( 'NONE', #66 ) ;
#77 = CARTESIAN_POINT ( 'NONE',  ( -10.00000000000000000, -20.00000000000000000, 0.000000000000000000 ) ) ;
#78 = VECTOR ( 'NONE', #137, 1000.000000000000000 ) ;
#79 = PRESENTATION_STYLE_ASSIGNMENT (( #301 ) ) ;
#80 = CARTESIAN_POINT ( 'NONE',  ( -10.00000000000000000, -20.00000000000000000, 0.000000000000000000 ) ) ;
#81 = ADVANCED_FACE ( 'NONE', ( #116, #240 ), #298, .T. ) ;
#82 = ORIENTED_EDGE ( 'NONE', *, *, #180, .T. ) ;
#83 = CARTESIAN_POINT ( 'NONE',  ( 8.000000000000010658, 18.00000000000000355, 1000.000000000000000 ) ) ;
#84 = DIRECTION ( 'NONE',  ( -1.000000000000000000, 0.000000000000000000, 0.000000000000000000 ) ) ;
#85 = MECHANICAL_DESIGN_GEOMETRIC_PRESENTATION_REPRESENTATION (  '', ( #242 ), #286 ) ;
#86 = CARTESIAN_POINT ( 'NONE',  ( 10.00000000000000000, 20.00000000000000000, 1000.000000000000000 ) ) ;
#87 = DIRECTION ( 'NONE',  ( 0.000000000000000000, 0.000000000000000000, 1.000000000000000000 ) ) ;
#88 = CARTESIAN_POINT ( 'NONE',  ( 8.000000000000010658, 18.00000000000000355, 1000.000000000000000 ) ) ;
#89 = DIRECTION ( 'NONE',  ( -1.000000000000000000, -0.000000000000000000, -0.000000000000000000 ) ) ;
#90 = EDGE_CURVE ( 'NONE', #96, #160, #236, .T. ) ;
#91 = VECTOR ( 'NONE', #194, 1000.000000000000000 ) ;
#92 = CARTESIAN_POINT ( 'NONE',  ( 10.00000000000000000, -20.00000000000000000, 0.000000000000000000 ) ) ;
#93 = ORIENTED_EDGE ( 'NONE', *, *, #229, .T. ) ;
#94 = MANIFOLD_SOLID_BREP ( '\X2\0411043e0431044b0448043a0430\X0\-\X2\0412044b0442044f043d04430442044c\X0\1', #216 ) ;
#95 = ORIENTED_EDGE ( 'NONE', *, *, #320, .T. ) ;
#96 = VERTEX_POINT ( 'NONE', #173 ) ;
#97 = CARTESIAN_POINT ( 'NONE',  ( 10.00000000000000000, -20.00000000000000000, 0.000000000000000000 ) ) ;
#98 = AXIS2_PLACEMENT_3D ( 'NONE', #68, #166, #272 ) ;
#99 = EDGE_LOOP ( 'NONE', ( #17, #118, #237, #174 ) ) ;
#100 = SURFACE_SIDE_STYLE ('',( #148 ) ) ;
#101 = EDGE_CURVE ( 'NONE', #211, #196, #217, .T. ) ;
#102 = VERTEX_POINT ( 'NONE', #323 ) ;
#103 = DIRECTION ( 'NONE',  ( -1.000000000000000000, 0.000000000000000000, 0.000000000000000000 ) ) ;
#104 = DIRECTION ( 'NONE',  ( -0.000000000000000000, -1.000000000000000000, -0.000000000000000000 ) ) ;
#105 = CARTESIAN_POINT ( 'NONE',  ( -10.00000000000000000, 20.00000000000000000, 1000.000000000000000 ) ) ;
#106 = CARTESIAN_POINT ( 'NONE',  ( 8.000000000000010658, -18.00000000000000355, 1000.000000000000000 ) ) ;
#107 = DIRECTION ( 'NONE',  ( 1.000000000000000000, 0.000000000000000000, 0.000000000000000000 ) ) ;
#108 = DIRECTION ( 'NONE',  ( 0.000000000000000000, 1.000000000000000000, 0.000000000000000000 ) ) ;
#109 = PRODUCT_DEFINITION_SHAPE ( 'NONE', 'NONE',  #250 ) ;
#110 = CARTESIAN_POINT ( 'NONE',  ( -10.00000000000000000, -20.00000000000000000, 1000.000000000000000 ) ) ;
#111 = CARTESIAN_POINT ( 'NONE',  ( 8.000000000000010658, -18.00000000000000355, 1000.000000000000000 ) ) ;
#112 = VECTOR ( 'NONE', #256, 1000.000000000000000 ) ;
#113 = ADVANCED_FACE ( 'NONE', ( #56 ), #151, .T. ) ;
#114 = CARTESIAN_POINT ( 'NONE',  ( -10.00000000000000000, -20.00000000000000000, 1000.000000000000000 ) ) ;
#115 = LINE ( 'NONE', #210, #60 ) ;
#116 = FACE_OUTER_BOUND ( 'NONE', #297, .T. ) ;
#117 = ORIENTED_EDGE ( 'NONE', *, *, #59, .F. ) ;
#118 = ORIENTED_EDGE ( 'NONE', *, *, #317, .F. ) ;
#119 = ORIENTED_EDGE ( 'NONE', *, *, #59, .T. ) ;
#120 = EDGE_CURVE ( 'NONE', #55, #48, #53, .T. ) ;
#121 = VECTOR ( 'NONE', #276, 1000.000000000000000 ) ;
#122 = ORIENTED_EDGE ( 'NONE', *, *, #296, .T. ) ;
#123 = DIRECTION ( 'NONE',  ( 0.000000000000000000, -0.000000000000000000, 1.000000000000000000 ) ) ;
#124 = ORIENTED_EDGE ( 'NONE', *, *, #292, .F. ) ;
#125 = ORIENTED_EDGE ( 'NONE', *, *, #139, .F. ) ;
#126 = LINE ( 'NONE', #29, #204 ) ;
#127 = AXIS2_PLACEMENT_3D ( 'NONE', #14, #13, #12 ) ;
#128 = LINE ( 'NONE', #231, #266 ) ;
#129 = PLANE ( 'NONE',  #304 ) ;
#130 = EDGE_LOOP ( 'NONE', ( #21, #71, #293, #25 ) ) ;
#131 = DIRECTION ( 'NONE',  ( 0.000000000000000000, -1.000000000000000000, 0.000000000000000000 ) ) ;
#132 = CARTESIAN_POINT ( 'NONE',  ( -8.000000000000000000, 18.00000000000000355, 1000.000000000000000 ) ) ;
#133 = FACE_OUTER_BOUND ( 'NONE', #130, .T. ) ;
#134 = PRODUCT_RELATED_PRODUCT_CATEGORY ( 'part', '', ( #202 ) ) ;
#135 = FACE_OUTER_BOUND ( 'NONE', #270, .T. ) ;
#136 = FACE_BOUND ( 'NONE', #57, .T. ) ;
#137 = DIRECTION ( 'NONE',  ( -0.000000000000000000, -0.000000000000000000, -1.000000000000000000 ) ) ;
#138 = AXIS2_PLACEMENT_3D ( 'NONE', #263, #103, #87 ) ;
#139 = EDGE_CURVE ( 'NONE', #76, #102, #126, .T. ) ;
#140 = VERTEX_POINT ( 'NONE', #75 ) ;
#141 = VECTOR ( 'NONE', #261, 1000.000000000000000 ) ;
#142 = ORIENTED_EDGE ( 'NONE', *, *, #145, .F. ) ;
#143 = LINE ( 'NONE', #284, #40 ) ;
#144 = ORIENTED_EDGE ( 'NONE', *, *, #101, .T. ) ;
#145 = EDGE_CURVE ( 'NONE', #189, #74, #5, .T. ) ;
#146 = FILL_AREA_STYLE_COLOUR ( '', #4 ) ;
#147 = ORIENTED_EDGE ( 'NONE', *, *, #101, .F. ) ;
#148 = SURFACE_STYLE_FILL_AREA ( #1 ) ;
#149 = VECTOR ( 'NONE', #108, 1000.000000000000000 ) ;
#150 = ORIENTED_EDGE ( 'NONE', *, *, #167, .F. ) ;
#151 = PLANE ( 'NONE',  #31 ) ;
#152 = CARTESIAN_POINT ( 'NONE',  ( -8.000000000000000000, 18.00000000000000355, 1000.000000000000000 ) ) ;
#153 = DIRECTION ( 'NONE',  ( 0.000000000000000000, 0.000000000000000000, -1.000000000000000000 ) ) ;
#154 = DIRECTION ( 'NONE',  ( 0.000000000000000000, -0.000000000000000000, -1.000000000000000000 ) ) ;
#155 = CARTESIAN_POINT ( 'NONE',  ( -10.00000000000000000, 20.00000000000000000, 0.000000000000000000 ) ) ;
#156 = PLANE ( 'NONE',  #127 ) ;
#157 = PLANE ( 'NONE',  #226 ) ;
#158 = DIRECTION ( 'NONE',  ( 0.000000000000000000, 1.000000000000000000, 0.000000000000000000 ) ) ;
#159 = EDGE_CURVE ( 'NONE', #74, #192, #143, .T. ) ;
#160 = VERTEX_POINT ( 'NONE', #23 ) ;
#161 = DIRECTION ( 'NONE',  ( 1.000000000000000000, 0.000000000000000000, 0.000000000000000000 ) ) ;
#162 = DIRECTION ( 'NONE',  ( 0.000000000000000000, 0.000000000000000000, -1.000000000000000000 ) ) ;
#163 = EDGE_LOOP ( 'NONE', ( #119, #172, #241, #321 ) ) ;
#164 = PRODUCT_CONTEXT ( 'NONE', #190, 'mechanical' ) ;
#165 = DIRECTION ( 'NONE',  ( -0.000000000000000000, -0.000000000000000000, -1.000000000000000000 ) ) ;
#166 = DIRECTION ( 'NONE',  ( 0.000000000000000000, 0.000000000000000000, 1.000000000000000000 ) ) ;
#167 = EDGE_CURVE ( 'NONE', #140, #76, #221, .T. ) ;
#168 = VERTEX_POINT ( 'NONE', #50 ) ;
#169 = ORIENTED_EDGE ( 'NONE', *, *, #320, .F. ) ;
#170 = VECTOR ( 'NONE', #41, 1000.000000000000000 ) ;
#171 = EDGE_CURVE ( 'NONE', #192, #168, #197, .T. ) ;
#172 = ORIENTED_EDGE ( 'NONE', *, *, #265, .F. ) ;
#173 = CARTESIAN_POINT ( 'NONE',  ( -8.000000000000000000, -18.00000000000000355, 1000.000000000000000 ) ) ;
#174 = ORIENTED_EDGE ( 'NONE', *, *, #292, .T. ) ;
#175 = ORIENTED_EDGE ( 'NONE', *, *, #54, .T. ) ;
#176 = AXIS2_PLACEMENT_3D ( 'NONE', #182, #84, #282 ) ;
#177 = CARTESIAN_POINT ( 'NONE',  ( -8.000000000000000000, -18.00000000000000355, 1000.000000000000000 ) ) ;
#178 = CARTESIAN_POINT ( 'NONE',  ( -10.00000000000000000, -20.00000000000000000, 1000.000000000000000 ) ) ;
#179 = CARTESIAN_POINT ( 'NONE',  ( -10.00000000000000000, 20.00000000000000000, 1000.000000000000000 ) ) ;
#180 = EDGE_CURVE ( 'NONE', #44, #140, #67, .T. ) ;
#181 = DIRECTION ( 'NONE',  ( -0.000000000000000000, -0.000000000000000000, -1.000000000000000000 ) ) ;
#182 = CARTESIAN_POINT ( 'NONE',  ( 10.00000000000000000, -20.00000000000000000, 1000.000000000000000 ) ) ;
#183 = CARTESIAN_POINT ( 'NONE',  ( 10.00000000000000000, 20.00000000000000000, 0.000000000000000000 ) ) ;
#184 = LINE ( 'NONE', #110, #170 ) ;
#185 = CARTESIAN_POINT ( 'NONE',  ( -10.00000000000000000, 20.00000000000000000, 1000.000000000000000 ) ) ;
#186 =( NAMED_UNIT ( * ) SI_UNIT ( $, .STERADIAN. ) SOLID_ANGLE_UNIT ( ) );
#187 = VECTOR ( 'NONE', #26, 1000.000000000000000 ) ;
#188 = EDGE_LOOP ( 'NONE', ( #280, #27, #247, #224 ) ) ;
#189 = VERTEX_POINT ( 'NONE', #208 ) ;
#190 = APPLICATION_CONTEXT ( 'automotive_design' ) ;
#191 = EDGE_CURVE ( 'NONE', #74, #48, #184, .T. ) ;
#192 = VERTEX_POINT ( 'NONE', #290 ) ;
#193 = VECTOR ( 'NONE', #15, 1000.000000000000000 ) ;
#194 = DIRECTION ( 'NONE',  ( 0.000000000000000000, 1.000000000000000000, 0.000000000000000000 ) ) ;
#195 = CARTESIAN_POINT ( 'NONE',  ( -8.000000000000000000, -18.00000000000000355, 1000.000000000000000 ) ) ;
#196 = VERTEX_POINT ( 'NONE', #183 ) ;
#197 = LINE ( 'NONE', #303, #291 ) ;
#198 = EDGE_CURVE ( 'NONE', #196, #55, #61, .T. ) ;
#199 = VECTOR ( 'NONE', #181, 1000.000000000000000 ) ;
#200 = DIRECTION ( 'NONE',  ( 0.000000000000000000, -0.000000000000000000, -1.000000000000000000 ) ) ;
#201 = DIRECTION ( 'NONE',  ( 1.000000000000000000, 0.000000000000000000, 0.000000000000000000 ) ) ;
#202 = PRODUCT ( 'PR4020S3X \X2\041f0440043e04440438043b044c\X0\ \X2\0430043b044e043c0438043d043804350432044b0439\X0\, \X2\043f0440044f043c043e04430433043e043b044c043d0438043a\X0\ 40x20x2 (\X2\041104350437\X0\ \X2\043f043e043a0440044b04420438044f\X0\)', 'PR4020S3X \X2\041f0440043e04440438043b044c\X0\ \X2\0430043b044e043c0438043d043804350432044b0439\X0\, \X2\043f0440044f043c043e04430433043e043b044c043d0438043a\X0\ 40x20x2 (\X2\041104350437\X0\ \X2\043f043e043a0440044b04420438044f\X0\)', '', ( #164 ) ) ;
#203 = DIRECTION ( 'NONE',  ( 0.000000000000000000, -1.000000000000000000, 0.000000000000000000 ) ) ;
#204 = VECTOR ( 'NONE', #319, 1000.000000000000000 ) ;
#205 = PLANE ( 'NONE',  #138 ) ;
#206 = DIRECTION ( 'NONE',  ( -0.000000000000000000, -0.000000000000000000, -1.000000000000000000 ) ) ;
#207 = FACE_OUTER_BOUND ( 'NONE', #99, .T. ) ;
#208 = CARTESIAN_POINT ( 'NONE',  ( -10.00000000000000000, 20.00000000000000000, 1000.000000000000000 ) ) ;
#209 = AXIS2_PLACEMENT_3D ( 'NONE', #179, #203, #154 ) ;
#210 = CARTESIAN_POINT ( 'NONE',  ( -8.000000000000000000, 18.00000000000000355, 1000.000000000000000 ) ) ;
#211 = VERTEX_POINT ( 'NONE', #92 ) ;
#212 = APPLICATION_PROTOCOL_DEFINITION ( 'draft international standard', 'automotive_design', 1998, #245 ) ;
#213 = ADVANCED_FACE ( 'NONE', ( #207 ), #306, .F. ) ;
#214 = DIRECTION ( 'NONE',  ( -1.000000000000000000, 0.000000000000000000, -0.000000000000000000 ) ) ;
#215 = EDGE_LOOP ( 'NONE', ( #275, #218, #38, #82 ) ) ;
#216 = CLOSED_SHELL ( 'NONE', ( #313, #81, #28, #213, #222, #255, #113, #42, #278, #10 ) ) ;
#217 = LINE ( 'NONE', #97, #187 ) ;
#218 = ORIENTED_EDGE ( 'NONE', *, *, #90, .F. ) ;
#219 = CARTESIAN_POINT ( 'NONE',  ( 8.000000000000010658, -18.00000000000000355, 0.000000000000000000 ) ) ;
#220 = EDGE_LOOP ( 'NONE', ( #150, #318, #122, #93 ) ) ;
#221 = LINE ( 'NONE', #219, #91 ) ;
#222 = ADVANCED_FACE ( 'NONE', ( #285 ), #262, .F. ) ;
#223 = ORIENTED_EDGE ( 'NONE', *, *, #296, .F. ) ;
#224 = ORIENTED_EDGE ( 'NONE', *, *, #139, .T. ) ;
#225 =( NAMED_UNIT ( * ) SI_UNIT ( $, .STERADIAN. ) SOLID_ANGLE_UNIT ( ) );
#226 = AXIS2_PLACEMENT_3D ( 'NONE', #177, #230, #153 ) ;
#227 = LINE ( 'NONE', #288, #47 ) ;
#228 = CARTESIAN_POINT ( 'NONE',  ( 0.000000000000000000, 0.000000000000000000, 1000.000000000000000 ) ) ;
#229 = EDGE_CURVE ( 'NONE', #273, #76, #64, .T. ) ;
#230 = DIRECTION ( 'NONE',  ( 1.000000000000000000, 0.000000000000000000, 0.000000000000000000 ) ) ;
#231 = CARTESIAN_POINT ( 'NONE',  ( -8.000000000000000000, -18.00000000000000355, 0.000000000000000000 ) ) ;
#232 = DIRECTION ( 'NONE',  ( 0.000000000000000000, 0.000000000000000000, -1.000000000000000000 ) ) ;
#233 = VECTOR ( 'NONE', #107, 1000.000000000000000 ) ;
#234 = CARTESIAN_POINT ( 'NONE',  ( 0.000000000000000000, 0.000000000000000000, 0.000000000000000000 ) ) ;
#235 = DIRECTION ( 'NONE',  ( -0.000000000000000000, -0.000000000000000000, -1.000000000000000000 ) ) ;
#236 = LINE ( 'NONE', #243, #300 ) ;
#237 = ORIENTED_EDGE ( 'NONE', *, *, #302, .F. ) ;
#238 = LINE ( 'NONE', #86, #199 ) ;
#239 =( LENGTH_UNIT ( ) NAMED_UNIT ( * ) SI_UNIT ( .MILLI., .METRE. ) );
#240 = FACE_BOUND ( 'NONE', #188, .T. ) ;
#241 = ORIENTED_EDGE ( 'NONE', *, *, #159, .F. ) ;
#242 = STYLED_ITEM ( 'NONE', ( #79 ), #94 ) ;
#243 = CARTESIAN_POINT ( 'NONE',  ( -8.000000000000000000, -18.00000000000000355, 1000.000000000000000 ) ) ;
#244 = ORIENTED_EDGE ( 'NONE', *, *, #309, .F. ) ;
#245 = APPLICATION_CONTEXT ( 'automotive_design' ) ;
#246 = DIRECTION ( 'NONE',  ( 1.000000000000000000, 0.000000000000000000, 0.000000000000000000 ) ) ;
#247 = ORIENTED_EDGE ( 'NONE', *, *, #167, .T. ) ;
#248 = EDGE_LOOP ( 'NONE', ( #244, #315, #175, #19 ) ) ;
#249 = PRODUCT_DEFINITION_FORMATION_WITH_SPECIFIED_SOURCE ( 'ANY', '', #202, .NOT_KNOWN. ) ;
#250 = PRODUCT_DEFINITION ( 'UNKNOWN', '', #249, #9 ) ;
#251 = DIRECTION ( 'NONE',  ( 0.000000000000000000, 1.000000000000000000, 0.000000000000000000 ) ) ;
#252 = PLANE ( 'NONE',  #176 ) ;
#253 =( LENGTH_UNIT ( ) NAMED_UNIT ( * ) SI_UNIT ( .MILLI., .METRE. ) );
#254 = CARTESIAN_POINT ( 'NONE',  ( 8.000000000000010658, -18.00000000000000355, 1000.000000000000000 ) ) ;
#255 = ADVANCED_FACE ( 'NONE', ( #8 ), #156, .F. ) ;
#256 = DIRECTION ( 'NONE',  ( -1.000000000000000000, -0.000000000000000000, -0.000000000000000000 ) ) ;
#257 = VECTOR ( 'NONE', #279, 1000.000000000000000 ) ;
#258 = LINE ( 'NONE', #33, #281 ) ;
#259 = DIRECTION ( 'NONE',  ( 0.000000000000000000, 0.000000000000000000, -1.000000000000000000 ) ) ;
#260 = UNCERTAINTY_MEASURE_WITH_UNIT (LENGTH_MEASURE( 1.000000000000000082E-05 ), #239, 'distance_accuracy_value', 'NONE');
#261 = DIRECTION ( 'NONE',  ( -0.000000000000000000, -0.000000000000000000, -1.000000000000000000 ) ) ;
#262 = PLANE ( 'NONE',  #322 ) ;
#263 = CARTESIAN_POINT ( 'NONE',  ( 8.000000000000010658, -18.00000000000000355, 1000.000000000000000 ) ) ;
#264 = LINE ( 'NONE', #34, #78 ) ;
#265 = EDGE_CURVE ( 'NONE', #192, #211, #264, .T. ) ;
#266 = VECTOR ( 'NONE', #39, 1000.000000000000000 ) ;
#267 = FACE_OUTER_BOUND ( 'NONE', #72, .T. ) ;
#268 = EDGE_CURVE ( 'NONE', #160, #140, #128, .T. ) ;
#269 = DIRECTION ( 'NONE',  ( -1.000000000000000000, -0.000000000000000000, -0.000000000000000000 ) ) ;
#270 = EDGE_LOOP ( 'NONE', ( #144, #124, #49, #299 ) ) ;
#271 = ORIENTED_EDGE ( 'NONE', *, *, #191, .F. ) ;
#272 = DIRECTION ( 'NONE',  ( 1.000000000000000000, 0.000000000000000000, 0.000000000000000000 ) ) ;
#273 = VERTEX_POINT ( 'NONE', #88 ) ;
#274 = VECTOR ( 'NONE', #89, 1000.000000000000000 ) ;
#275 = ORIENTED_EDGE ( 'NONE', *, *, #268, .F. ) ;
#276 = DIRECTION ( 'NONE',  ( -0.000000000000000000, -1.000000000000000000, -0.000000000000000000 ) ) ;
#277 = ORIENTED_EDGE ( 'NONE', *, *, #120, .F. ) ;
#278 = ADVANCED_FACE ( 'NONE', ( #267 ), #307, .T. ) ;
#279 = DIRECTION ( 'NONE',  ( -0.000000000000000000, -1.000000000000000000, -0.000000000000000000 ) ) ;
#280 = ORIENTED_EDGE ( 'NONE', *, *, #309, .T. ) ;
#281 = VECTOR ( 'NONE', #201, 1000.000000000000000 ) ;
#282 = DIRECTION ( 'NONE',  ( 0.000000000000000000, 0.000000000000000000, 1.000000000000000000 ) ) ;
#283 = ORIENTED_EDGE ( 'NONE', *, *, #198, .F. ) ;
#284 = CARTESIAN_POINT ( 'NONE',  ( -10.00000000000000000, -20.00000000000000000, 1000.000000000000000 ) ) ;
#285 = FACE_OUTER_BOUND ( 'NONE', #73, .T. ) ;
#286 =( GEOMETRIC_REPRESENTATION_CONTEXT ( 3 ) GLOBAL_UNCERTAINTY_ASSIGNED_CONTEXT ( ( #62 ) ) GLOBAL_UNIT_ASSIGNED_CONTEXT ( ( #253, #52, #225 ) ) REPRESENTATION_CONTEXT ( 'NONE', 'WORKASPACE' ) );
#287 = LINE ( 'NONE', #185, #112 ) ;
#288 = CARTESIAN_POINT ( 'NONE',  ( -8.000000000000000000, -18.00000000000000355, 1000.000000000000000 ) ) ;
#289 = CARTESIAN_POINT ( 'NONE',  ( -8.000000000000000000, 18.00000000000000355, 1000.000000000000000 ) ) ;
#290 = CARTESIAN_POINT ( 'NONE',  ( 10.00000000000000000, -20.00000000000000000, 1000.000000000000000 ) ) ;
#291 = VECTOR ( 'NONE', #158, 1000.000000000000000 ) ;
#292 = EDGE_CURVE ( 'NONE', #168, #196, #238, .T. ) ;
#293 = ORIENTED_EDGE ( 'NONE', *, *, #145, .T. ) ;
#294 = ORIENTED_EDGE ( 'NONE', *, *, #317, .T. ) ;
#295 = APPLICATION_PROTOCOL_DEFINITION ( 'draft international standard', 'automotive_design', 1998, #190 ) ;
#296 = EDGE_CURVE ( 'NONE', #44, #273, #312, .T. ) ;
#297 = EDGE_LOOP ( 'NONE', ( #147, #117, #277, #283 ) ) ;
#298 = PLANE ( 'NONE',  #316 ) ;
#299 = ORIENTED_EDGE ( 'NONE', *, *, #265, .T. ) ;
#300 = VECTOR ( 'NONE', #165, 1000.000000000000000 ) ;
#301 = SURFACE_STYLE_USAGE ( .BOTH. , #100 ) ;
#302 = EDGE_CURVE ( 'NONE', #168, #189, #287, .T. ) ;
#303 = CARTESIAN_POINT ( 'NONE',  ( 10.00000000000000000, -20.00000000000000000, 1000.000000000000000 ) ) ;
#304 = AXIS2_PLACEMENT_3D ( 'NONE', #228, #232, #310 ) ;
#305 = FACE_OUTER_BOUND ( 'NONE', #220, .T. ) ;
#306 = PLANE ( 'NONE',  #209 ) ;
#307 = PLANE ( 'NONE',  #20 ) ;
#308 = VECTOR ( 'NONE', #235, 1000.000000000000000 ) ;
#309 = EDGE_CURVE ( 'NONE', #102, #160, #32, .T. ) ;
#310 = DIRECTION ( 'NONE',  ( -1.000000000000000000, 0.000000000000000000, -0.000000000000000000 ) ) ;
#311 = CARTESIAN_POINT ( 'NONE',  ( -10.00000000000000000, 20.00000000000000000, 0.000000000000000000 ) ) ;
#312 = LINE ( 'NONE', #111, #149 ) ;
#313 = ADVANCED_FACE ( 'NONE', ( #133, #136 ), #129, .F. ) ;
#314 = VECTOR ( 'NONE', #58, 1000.000000000000000 ) ;
#315 = ORIENTED_EDGE ( 'NONE', *, *, #18, .F. ) ;
#316 = AXIS2_PLACEMENT_3D ( 'NONE', #234, #162, #214 ) ;
#317 = EDGE_CURVE ( 'NONE', #189, #55, #7, .T. ) ;
#318 = ORIENTED_EDGE ( 'NONE', *, *, #180, .F. ) ;
#319 = DIRECTION ( 'NONE',  ( -1.000000000000000000, -0.000000000000000000, -0.000000000000000000 ) ) ;
#320 = EDGE_CURVE ( 'NONE', #273, #22, #115, .T. ) ;
#321 = ORIENTED_EDGE ( 'NONE', *, *, #191, .T. ) ;
#322 = AXIS2_PLACEMENT_3D ( 'NONE', #65, #161, #259 ) ;
#323 = CARTESIAN_POINT ( 'NONE',  ( -8.000000000000000000, 18.00000000000000355, 0.000000000000000000 ) ) ;
ENDSEC;
END-ISO-10303-21;
