ISO-10303-21;
HEADER;
FILE_DESCRIPTION (( 'STEP AP214' ),
    '1' );
FILE_NAME ('Ñáîðêà6.STEP',
    '2025-03-28T10:26:50',
    ( '' ),
    ( '' ),
    'SwSTEP 2.0',
    'SolidWorks 2025',
    '' );
FILE_SCHEMA (( 'AUTOMOTIVE_DESIGN' ));
ENDSEC;

DATA;
#1 = CARTESIAN_POINT ( 'NONE',  ( -10.00000000000000000, 20.00000000000000000, 1000.000000000000000 ) ) ;
#2 = LINE ( 'NONE', #173, #25 ) ;
#3 = CARTESIAN_POINT ( 'NONE',  ( -6.999999999999999112, -17.00000000000000000, 1000.000000000000000 ) ) ;
#4 = UNCERTAINTY_MEASURE_WITH_UNIT (LENGTH_MEASURE( 1.000000000000000082E-05 ), #24, 'distance_accuracy_value', 'NONE');
#5 = DIRECTION ( 'NONE',  ( -0.000000000000000000, -0.000000000000000000, -1.000000000000000000 ) ) ;
#6 = AXIS2_PLACEMENT_3D ( 'NONE', #147, #258, #263 ) ;
#7 = DIRECTION ( 'NONE',  ( -0.000000000000000000, -0.000000000000000000, -1.000000000000000000 ) ) ;
#8 = PRESENTATION_STYLE_ASSIGNMENT (( #41 ) ) ;
#9 = ORIENTED_EDGE ( 'NONE', *, *, #34, .F. ) ;
#10 = DIRECTION ( 'NONE',  ( -1.000000000000000000, -0.000000000000000000, -0.000000000000000000 ) ) ;
#11 = VECTOR ( 'NONE', #141, 1000.000000000000000 ) ;
#12 = ORIENTED_EDGE ( 'NONE', *, *, #327, .F. ) ;
#13 = CARTESIAN_POINT ( 'NONE',  ( -10.00000000000000000, -20.00000000000000000, 1000.000000000000000 ) ) ;
#14 = ORIENTED_EDGE ( 'NONE', *, *, #166, .T. ) ;
#15 = VERTEX_POINT ( 'NONE', #79 ) ;
#16 = DIRECTION ( 'NONE',  ( 0.000000000000000000, -0.000000000000000000, -1.000000000000000000 ) ) ;
#17 = EDGE_LOOP ( 'NONE', ( #284, #326, #157, #12 ) ) ;
#18 = VECTOR ( 'NONE', #10, 1000.000000000000000 ) ;
#19 = PLANE ( 'NONE',  #6 ) ;
#20 = DIRECTION ( 'NONE',  ( 1.000000000000000000, 0.000000000000000000, 0.000000000000000000 ) ) ;
#21 = CARTESIAN_POINT ( 'NONE',  ( 10.00000000000000000, -20.00000000000000000, 0.000000000000000000 ) ) ;
#22 = FILL_AREA_STYLE ('',( #197 ) ) ;
#23 = FACE_OUTER_BOUND ( 'NONE', #246, .T. ) ;
#24 =( LENGTH_UNIT ( ) NAMED_UNIT ( * ) SI_UNIT ( .MILLI., .METRE. ) );
#25 = VECTOR ( 'NONE', #323, 1000.000000000000000 ) ;
#26 = APPLICATION_PROTOCOL_DEFINITION ( 'draft international standard', 'automotive_design', 1998, #254 ) ;
#27 = CARTESIAN_POINT ( 'NONE',  ( -10.00000000000000000, -20.00000000000000000, 1000.000000000000000 ) ) ;
#28 = EDGE_CURVE ( 'NONE', #128, #244, #365, .T. ) ;
#29 = DIRECTION ( 'NONE',  ( -0.000000000000000000, -0.000000000000000000, -1.000000000000000000 ) ) ;
#30 = CARTESIAN_POINT ( 'NONE',  ( 0.000000000000000000, 0.000000000000000000, 0.000000000000000000 ) ) ;
#31 = DIRECTION ( 'NONE',  ( -1.000000000000000000, 0.000000000000000000, -0.000000000000000000 ) ) ;
#32 = ORIENTED_EDGE ( 'NONE', *, *, #99, .F. ) ;
#33 = LINE ( 'NONE', #174, #253 ) ;
#34 = EDGE_CURVE ( 'NONE', #193, #15, #103, .T. ) ;
#35 = ORIENTED_EDGE ( 'NONE', *, *, #176, .F. ) ;
#36 = CARTESIAN_POINT ( 'NONE',  ( 7.000000000000013323, 17.00000000000000000, 1000.000000000000000 ) ) ;
#37 = EDGE_LOOP ( 'NONE', ( #239, #62, #303, #50 ) ) ;
#38 = CARTESIAN_POINT ( 'NONE',  ( 10.00000000000000000, -20.00000000000000000, 1000.000000000000000 ) ) ;
#39 =( GEOMETRIC_REPRESENTATION_CONTEXT ( 3 ) GLOBAL_UNCERTAINTY_ASSIGNED_CONTEXT ( ( #203 ) ) GLOBAL_UNIT_ASSIGNED_CONTEXT ( ( #187, #127, #100 ) ) REPRESENTATION_CONTEXT ( 'NONE', 'WORKASPACE' ) );
#40 = VECTOR ( 'NONE', #29, 1000.000000000000000 ) ;
#41 = SURFACE_STYLE_USAGE ( .BOTH. , #304 ) ;
#42 = ORIENTED_EDGE ( 'NONE', *, *, #121, .F. ) ;
#43 = FACE_OUTER_BOUND ( 'NONE', #184, .T. ) ;
#44 = EDGE_CURVE ( 'NONE', #47, #109, #77, .T. ) ;
#45 = VERTEX_POINT ( 'NONE', #91 ) ;
#46 = DIRECTION ( 'NONE',  ( 0.000000000000000000, -0.000000000000000000, 1.000000000000000000 ) ) ;
#47 = VERTEX_POINT ( 'NONE', #136 ) ;
#48 = CARTESIAN_POINT ( 'NONE',  ( -10.00000000000000000, -20.00000000000000000, 0.000000000000000000 ) ) ;
#49 = ADVANCED_FACE ( 'NONE', ( #200 ), #116, .T. ) ;
#50 = ORIENTED_EDGE ( 'NONE', *, *, #228, .T. ) ;
#51 = LINE ( 'NONE', #131, #289 ) ;
#52 = ORIENTED_EDGE ( 'NONE', *, *, #44, .T. ) ;
#53 =( LENGTH_UNIT ( ) NAMED_UNIT ( * ) SI_UNIT ( .MILLI., .METRE. ) );
#54 = PRODUCT_DEFINITION_SHAPE ( 'NONE', 'NONE',  #375 ) ;
#55 = AXIS2_PLACEMENT_3D ( 'NONE', #364, #273, #242 ) ;
#56 = ADVANCED_FACE ( 'NONE', ( #23 ), #19, .F. ) ;
#57 = CARTESIAN_POINT ( 'NONE',  ( 0.000000000000000000, 0.000000000000000000, 0.000000000000000000 ) ) ;
#58 = VECTOR ( 'NONE', #196, 1000.000000000000000 ) ;
#59 = EDGE_CURVE ( 'NONE', #334, #128, #318, .T. ) ;
#60 = CARTESIAN_POINT ( 'NONE',  ( -10.00000000000000000, 20.00000000000000000, 0.000000000000000000 ) ) ;
#61 = AXIS2_PLACEMENT_3D ( 'NONE', #13, #106, #46 ) ;
#62 = ORIENTED_EDGE ( 'NONE', *, *, #211, .F. ) ;
#63 = ORIENTED_EDGE ( 'NONE', *, *, #59, .F. ) ;
#64 = CARTESIAN_POINT ( 'NONE',  ( -6.999999999999999112, 17.00000000000000000, 1000.000000000000000 ) ) ;
#65 = SURFACE_STYLE_FILL_AREA ( #337 ) ;
#66 = VECTOR ( 'NONE', #310, 1000.000000000000000 ) ;
#67 = VECTOR ( 'NONE', #313, 1000.000000000000000 ) ;
#68 = PRODUCT_DEFINITION ( 'UNKNOWN', '', #361, #324 ) ;
#69 = DIRECTION ( 'NONE',  ( -0.000000000000000000, -0.000000000000000000, -1.000000000000000000 ) ) ;
#70 = VERTEX_POINT ( 'NONE', #290 ) ;
#71 = PLANE ( 'NONE',  #330 ) ;
#72 = ORIENTED_EDGE ( 'NONE', *, *, #152, .T. ) ;
#73 = DIRECTION ( 'NONE',  ( 0.000000000000000000, -1.000000000000000000, 0.000000000000000000 ) ) ;
#74 = VECTOR ( 'NONE', #320, 1000.000000000000000 ) ;
#75 = CARTESIAN_POINT ( 'NONE',  ( 7.000000000000013323, 17.00000000000000000, 1000.000000000000000 ) ) ;
#76 = CARTESIAN_POINT ( 'NONE',  ( -6.999999999999999112, -17.00000000000000000, 0.000000000000000000 ) ) ;
#77 = LINE ( 'NONE', #191, #266 ) ;
#78 = DIRECTION ( 'NONE',  ( -1.000000000000000000, 0.000000000000000000, -0.000000000000000000 ) ) ;
#79 = CARTESIAN_POINT ( 'NONE',  ( 7.000000000000013323, 17.00000000000000000, 0.000000000000000000 ) ) ;
#80 =( NAMED_UNIT ( * ) PLANE_ANGLE_UNIT ( ) SI_UNIT ( $, .RADIAN. ) );
#81 = AXIS2_PLACEMENT_3D ( 'NONE', #57, #317, #113 ) ;
#82 = EDGE_CURVE ( 'NONE', #70, #15, #294, .T. ) ;
#83 = SURFACE_STYLE_FILL_AREA ( #22 ) ;
#84 = SHAPE_DEFINITION_REPRESENTATION ( #293, #155 ) ;
#85 = CARTESIAN_POINT ( 'NONE',  ( 996.7539758729768664, 1006.264176258616430, 496.9828658904978056 ) ) ;
#86 = APPLICATION_PROTOCOL_DEFINITION ( 'draft international standard', 'automotive_design', 1998, #182 ) ;
#87 = CARTESIAN_POINT ( 'NONE',  ( -6.999999999999999112, 17.00000000000000000, 1000.000000000000000 ) ) ;
#88 = LINE ( 'NONE', #27, #74 ) ;
#89 = EDGE_CURVE ( 'NONE', #45, #150, #319, .T. ) ;
#90 = PRODUCT_DEFINITION_FORMATION_WITH_SPECIFIED_SOURCE ( 'ANY', '', #125, .NOT_KNOWN. ) ;
#91 = CARTESIAN_POINT ( 'NONE',  ( 10.00000000000000000, 20.00000000000000000, 1000.000000000000000 ) ) ;
#92 =( NAMED_UNIT ( * ) PLANE_ANGLE_UNIT ( ) SI_UNIT ( $, .RADIAN. ) );
#93 = AXIS2_PLACEMENT_3D ( 'NONE', #357, #175, #31 ) ;
#94 = DIRECTION ( 'NONE',  ( 0.000000000000000000, 0.000000000000000000, -1.000000000000000000 ) ) ;
#95 = DIRECTION ( 'NONE',  ( -1.000000000000000000, -0.000000000000000000, -0.000000000000000000 ) ) ;
#96 = VERTEX_POINT ( 'NONE', #172 ) ;
#97 = ORIENTED_EDGE ( 'NONE', *, *, #225, .T. ) ;
#98 = CARTESIAN_POINT ( 'NONE',  ( -10.00000000000000000, 20.00000000000000000, 1000.000000000000000 ) ) ;
#99 = EDGE_CURVE ( 'NONE', #340, #334, #321, .T. ) ;
#100 =( NAMED_UNIT ( * ) SI_UNIT ( $, .STERADIAN. ) SOLID_ANGLE_UNIT ( ) );
#101 = ORIENTED_EDGE ( 'NONE', *, *, #166, .F. ) ;
#102 = PLANE ( 'NONE',  #61 ) ;
#103 = LINE ( 'NONE', #75, #210 ) ;
#104 = CARTESIAN_POINT ( 'NONE',  ( 10.00000000000000000, 20.00000000000000000, 0.000000000000000000 ) ) ;
#105 = ORIENTED_EDGE ( 'NONE', *, *, #358, .T. ) ;
#106 = DIRECTION ( 'NONE',  ( 0.000000000000000000, 1.000000000000000000, 0.000000000000000000 ) ) ;
#107 = ORIENTED_EDGE ( 'NONE', *, *, #99, .T. ) ;
#108 =( NAMED_UNIT ( * ) SI_UNIT ( $, .STERADIAN. ) SOLID_ANGLE_UNIT ( ) );
#109 = VERTEX_POINT ( 'NONE', #298 ) ;
#110 =( NAMED_UNIT ( * ) SI_UNIT ( $, .STERADIAN. ) SOLID_ANGLE_UNIT ( ) );
#111 = ITEM_DEFINED_TRANSFORMATION ( 'NONE', 'NONE', #123,  #81 ) ;
#112 = DIRECTION ( 'NONE',  ( 0.000000000000000000, -0.000000000000000000, 1.000000000000000000 ) ) ;
#113 = DIRECTION ( 'NONE',  ( 1.000000000000000000, 0.000000000000000000, 0.000000000000000000 ) ) ;
#114 = ADVANCED_FACE ( 'NONE', ( #233 ), #238, .T. ) ;
#115 = DIRECTION ( 'NONE',  ( 1.000000000000000000, 0.000000000000000000, 0.000000000000000000 ) ) ;
#116 = PLANE ( 'NONE',  #346 ) ;
#117 = PRESENTATION_LAYER_ASSIGNMENT (  '', '', ( #352 ) ) ;
#118 = LINE ( 'NONE', #64, #229 ) ;
#119 = EDGE_LOOP ( 'NONE', ( #107, #275, #312, #14 ) ) ;
#120 = DIRECTION ( 'NONE',  ( -0.000000000000000000, -0.000000000000000000, -1.000000000000000000 ) ) ;
#121 = EDGE_CURVE ( 'NONE', #150, #164, #283, .T. ) ;
#122 = DIRECTION ( 'NONE',  ( 1.000000000000000000, 0.000000000000000000, 0.000000000000000000 ) ) ;
#123 = AXIS2_PLACEMENT_3D ( 'NONE', #85, #142, #192 ) ;
#124 = ORIENTED_EDGE ( 'NONE', *, *, #211, .T. ) ;
#125 = PRODUCT ( '\X2\04210431043e0440043a0430\X0\6', '\X2\04210431043e0440043a0430\X0\6', '', ( #371 ) ) ;
#126 = CARTESIAN_POINT ( 'NONE',  ( -10.00000000000000000, 20.00000000000000000, 1000.000000000000000 ) ) ;
#127 =( NAMED_UNIT ( * ) PLANE_ANGLE_UNIT ( ) SI_UNIT ( $, .RADIAN. ) );
#128 = VERTEX_POINT ( 'NONE', #60 ) ;
#129 = CARTESIAN_POINT ( 'NONE',  ( 7.000000000000013323, -17.00000000000000000, 1000.000000000000000 ) ) ;
#130 = ORIENTED_EDGE ( 'NONE', *, *, #218, .T. ) ;
#131 = CARTESIAN_POINT ( 'NONE',  ( 10.00000000000000000, -20.00000000000000000, 1000.000000000000000 ) ) ;
#132 = EDGE_LOOP ( 'NONE', ( #343, #251, #359, #186 ) ) ;
#133 = APPLICATION_CONTEXT ( 'automotive_design' ) ;
#134 = DIRECTION ( 'NONE',  ( -0.000000000000000000, -0.000000000000000000, -1.000000000000000000 ) ) ;
#135 = DIRECTION ( 'NONE',  ( 0.000000000000000000, 1.000000000000000000, 0.000000000000000000 ) ) ;
#136 = CARTESIAN_POINT ( 'NONE',  ( -6.999999999999999112, -17.00000000000000000, 1000.000000000000000 ) ) ;
#137 = VECTOR ( 'NONE', #5, 1000.000000000000000 ) ;
#138 = ORIENTED_EDGE ( 'NONE', *, *, #34, .T. ) ;
#139 = SURFACE_SIDE_STYLE ('',( #83 ) ) ;
#140 = PRODUCT_RELATED_PRODUCT_CATEGORY ( 'part', '', ( #125 ) ) ;
#141 = DIRECTION ( 'NONE',  ( 0.000000000000000000, 1.000000000000000000, 0.000000000000000000 ) ) ;
#142 = DIRECTION ( 'NONE',  ( 0.000000000000000000, 0.000000000000000000, 1.000000000000000000 ) ) ;
#143 = DIRECTION ( 'NONE',  ( 0.000000000000000000, 0.000000000000000000, 1.000000000000000000 ) ) ;
#144 = PRESENTATION_LAYER_ASSIGNMENT (  '', '', ( #325 ) ) ;
#145 = EDGE_CURVE ( 'NONE', #109, #70, #33, .T. ) ;
#146 = DIRECTION ( 'NONE',  ( 0.000000000000000000, 1.000000000000000000, 0.000000000000000000 ) ) ;
#147 = CARTESIAN_POINT ( 'NONE',  ( -10.00000000000000000, -20.00000000000000000, 1000.000000000000000 ) ) ;
#148 = PLANE ( 'NONE',  #255 ) ;
#149 = MECHANICAL_DESIGN_GEOMETRIC_PRESENTATION_REPRESENTATION (  '', ( #325 ), #265 ) ;
#150 = VERTEX_POINT ( 'NONE', #126 ) ;
#151 = LINE ( 'NONE', #160, #66 ) ;
#152 = EDGE_CURVE ( 'NONE', #164, #156, #2, .T. ) ;
#153 = CARTESIAN_POINT ( 'NONE',  ( -6.999999999999999112, -17.00000000000000000, 0.000000000000000000 ) ) ;
#154 = UNCERTAINTY_MEASURE_WITH_UNIT (LENGTH_MEASURE( 1.000000000000000082E-05 ), #291, 'distance_accuracy_value', 'NONE');
#155 = SHAPE_REPRESENTATION ( '\X2\04210431043e0440043a0430\X0\6', ( #171, #123 ), #198 ) ;
#156 = VERTEX_POINT ( 'NONE', #178 ) ;
#157 = ORIENTED_EDGE ( 'NONE', *, *, #218, .F. ) ;
#158 = LINE ( 'NONE', #213, #67 ) ;
#159 = ORIENTED_EDGE ( 'NONE', *, *, #327, .T. ) ;
#160 = CARTESIAN_POINT ( 'NONE',  ( -10.00000000000000000, -20.00000000000000000, 0.000000000000000000 ) ) ;
#161 = EDGE_LOOP ( 'NONE', ( #32, #177, #356, #63 ) ) ;
#162 = LINE ( 'NONE', #305, #224 ) ;
#163 = DIRECTION ( 'NONE',  ( 0.000000000000000000, -0.000000000000000000, -1.000000000000000000 ) ) ;
#164 = VERTEX_POINT ( 'NONE', #237 ) ;
#165 = LINE ( 'NONE', #185, #230 ) ;
#166 = EDGE_CURVE ( 'NONE', #156, #340, #301, .T. ) ;
#167 = ORIENTED_EDGE ( 'NONE', *, *, #176, .T. ) ;
#168 = MECHANICAL_DESIGN_GEOMETRIC_PRESENTATION_REPRESENTATION (  '', ( #352 ), #39 ) ;
#169 = DIRECTION ( 'NONE',  ( 0.000000000000000000, 1.000000000000000000, 0.000000000000000000 ) ) ;
#170 = APPLICATION_PROTOCOL_DEFINITION ( 'draft international standard', 'automotive_design', 1998, #297 ) ;
#171 = AXIS2_PLACEMENT_3D ( 'NONE', #30, #143, #115 ) ;
#172 = CARTESIAN_POINT ( 'NONE',  ( -6.999999999999999112, 17.00000000000000000, 1000.000000000000000 ) ) ;
#173 = CARTESIAN_POINT ( 'NONE',  ( -10.00000000000000000, -20.00000000000000000, 1000.000000000000000 ) ) ;
#174 = CARTESIAN_POINT ( 'NONE',  ( 7.000000000000013323, -17.00000000000000000, 1000.000000000000000 ) ) ;
#175 = DIRECTION ( 'NONE',  ( 0.000000000000000000, 0.000000000000000000, -1.000000000000000000 ) ) ;
#176 = EDGE_CURVE ( 'NONE', #234, #70, #241, .T. ) ;
#177 = ORIENTED_EDGE ( 'NONE', *, *, #225, .F. ) ;
#178 = CARTESIAN_POINT ( 'NONE',  ( 10.00000000000000000, -20.00000000000000000, 1000.000000000000000 ) ) ;
#179 = CARTESIAN_POINT ( 'NONE',  ( 10.00000000000000000, 20.00000000000000000, 1000.000000000000000 ) ) ;
#180 = VECTOR ( 'NONE', #7, 1000.000000000000000 ) ;
#181 = AXIS2_PLACEMENT_3D ( 'NONE', #98, #207, #16 ) ;
#182 = APPLICATION_CONTEXT ( 'automotive_design' ) ;
#183 = LINE ( 'NONE', #76, #331 ) ;
#184 = EDGE_LOOP ( 'NONE', ( #212, #220, #159, #138 ) ) ;
#185 = CARTESIAN_POINT ( 'NONE',  ( 7.000000000000013323, -17.00000000000000000, 1000.000000000000000 ) ) ;
#186 = ORIENTED_EDGE ( 'NONE', *, *, #190, .T. ) ;
#187 =( LENGTH_UNIT ( ) NAMED_UNIT ( * ) SI_UNIT ( .MILLI., .METRE. ) );
#188 = EDGE_LOOP ( 'NONE', ( #286, #167, #338, #277 ) ) ;
#189 = PLANE ( 'NONE',  #279 ) ;
#190 = EDGE_CURVE ( 'NONE', #47, #234, #299, .T. ) ;
#191 = CARTESIAN_POINT ( 'NONE',  ( -6.999999999999999112, -17.00000000000000000, 1000.000000000000000 ) ) ;
#192 = DIRECTION ( 'NONE',  ( 1.000000000000000000, 0.000000000000000000, 0.000000000000000000 ) ) ;
#193 = VERTEX_POINT ( 'NONE', #36 ) ;
#194 = SURFACE_STYLE_USAGE ( .BOTH. , #139 ) ;
#195 = CARTESIAN_POINT ( 'NONE',  ( 7.000000000000013323, -17.00000000000000000, 0.000000000000000000 ) ) ;
#196 = DIRECTION ( 'NONE',  ( -1.000000000000000000, -0.000000000000000000, -0.000000000000000000 ) ) ;
#197 = FILL_AREA_STYLE_COLOUR ( '', #368 ) ;
#198 =( GEOMETRIC_REPRESENTATION_CONTEXT ( 3 ) GLOBAL_UNCERTAINTY_ASSIGNED_CONTEXT ( ( #268 ) ) GLOBAL_UNIT_ASSIGNED_CONTEXT ( ( #53, #92, #351 ) ) REPRESENTATION_CONTEXT ( 'NONE', 'WORKASPACE' ) );
#199 = VECTOR ( 'NONE', #235, 1000.000000000000000 ) ;
#200 = FACE_OUTER_BOUND ( 'NONE', #214, .T. ) ;
#201 = ADVANCED_FACE ( 'NONE', ( #269 ), #148, .T. ) ;
#202 = ORIENTED_EDGE ( 'NONE', *, *, #121, .T. ) ;
#203 = UNCERTAINTY_MEASURE_WITH_UNIT (LENGTH_MEASURE( 1.000000000000000082E-05 ), #187, 'distance_accuracy_value', 'NONE');
#204 = FACE_BOUND ( 'NONE', #17, .T. ) ;
#205 = ADVANCED_FACE ( 'NONE', ( #300, #204 ), #264, .F. ) ;
#206 = LINE ( 'NONE', #1, #137 ) ;
#207 = DIRECTION ( 'NONE',  ( 0.000000000000000000, -1.000000000000000000, 0.000000000000000000 ) ) ;
#208 = PRODUCT_DEFINITION_SHAPE ( 'NONE', 'NONE',  #68 ) ;
#209 = LINE ( 'NONE', #179, #288 ) ;
#210 = VECTOR ( 'NONE', #134, 1000.000000000000000 ) ;
#211 = EDGE_CURVE ( 'NONE', #150, #128, #206, .T. ) ;
#212 = ORIENTED_EDGE ( 'NONE', *, *, #82, .F. ) ;
#213 = CARTESIAN_POINT ( 'NONE',  ( -6.999999999999999112, 17.00000000000000000, 1000.000000000000000 ) ) ;
#214 = EDGE_LOOP ( 'NONE', ( #35, #369, #52, #267 ) ) ;
#215 = CARTESIAN_POINT ( 'NONE',  ( 10.00000000000000000, -20.00000000000000000, 0.000000000000000000 ) ) ;
#216 = ORIENTED_EDGE ( 'NONE', *, *, #28, .T. ) ;
#217 = DIRECTION ( 'NONE',  ( -0.000000000000000000, -1.000000000000000000, -0.000000000000000000 ) ) ;
#218 = EDGE_CURVE ( 'NONE', #193, #96, #118, .T. ) ;
#219 = VECTOR ( 'NONE', #95, 1000.000000000000000 ) ;
#220 = ORIENTED_EDGE ( 'NONE', *, *, #145, .F. ) ;
#221 = DIRECTION ( 'NONE',  ( 0.000000000000000000, 0.000000000000000000, -1.000000000000000000 ) ) ;
#222 = ORIENTED_EDGE ( 'NONE', *, *, #292, .T. ) ;
#223 = APPLICATION_PROTOCOL_DEFINITION ( 'draft international standard', 'automotive_design', 1998, #133 ) ;
#224 = VECTOR ( 'NONE', #217, 1000.000000000000000 ) ;
#225 = EDGE_CURVE ( 'NONE', #244, #340, #151, .T. ) ;
#226 = CARTESIAN_POINT ( 'NONE',  ( -6.999999999999999112, -17.00000000000000000, 1000.000000000000000 ) ) ;
#227 = CARTESIAN_POINT ( 'NONE',  ( -10.00000000000000000, 20.00000000000000000, 0.000000000000000000 ) ) ;
#228 = EDGE_CURVE ( 'NONE', #45, #334, #209, .T. ) ;
#229 = VECTOR ( 'NONE', #231, 1000.000000000000000 ) ;
#230 = VECTOR ( 'NONE', #135, 1000.000000000000000 ) ;
#231 = DIRECTION ( 'NONE',  ( -1.000000000000000000, -0.000000000000000000, -0.000000000000000000 ) ) ;
#232 = PRODUCT_DEFINITION_CONTEXT ( 'detailed design', #297, 'design' ) ;
#233 = FACE_OUTER_BOUND ( 'NONE', #370, .T. ) ;
#234 = VERTEX_POINT ( 'NONE', #245 ) ;
#235 = DIRECTION ( 'NONE',  ( -0.000000000000000000, -1.000000000000000000, -0.000000000000000000 ) ) ;
#236 = EDGE_CURVE ( 'NONE', #328, #234, #183, .T. ) ;
#237 = CARTESIAN_POINT ( 'NONE',  ( -10.00000000000000000, -20.00000000000000000, 1000.000000000000000 ) ) ;
#238 = PLANE ( 'NONE',  #311 ) ;
#239 = ORIENTED_EDGE ( 'NONE', *, *, #59, .T. ) ;
#240 = CARTESIAN_POINT ( 'NONE',  ( -10.00000000000000000, -20.00000000000000000, 1000.000000000000000 ) ) ;
#241 = LINE ( 'NONE', #153, #362 ) ;
#242 = DIRECTION ( 'NONE',  ( 0.000000000000000000, 0.000000000000000000, 1.000000000000000000 ) ) ;
#243 = PRODUCT_RELATED_PRODUCT_CATEGORY ( 'part', '', ( #272 ) ) ;
#244 = VERTEX_POINT ( 'NONE', #48 ) ;
#245 = CARTESIAN_POINT ( 'NONE',  ( -6.999999999999999112, -17.00000000000000000, 0.000000000000000000 ) ) ;
#246 = EDGE_LOOP ( 'NONE', ( #216, #256, #42, #124 ) ) ;
#247 = DIRECTION ( 'NONE',  ( 0.000000000000000000, 0.000000000000000000, 1.000000000000000000 ) ) ;
#248 = ADVANCED_FACE ( 'NONE', ( #250 ), #307, .F. ) ;
#249 = ORIENTED_EDGE ( 'NONE', *, *, #308, .T. ) ;
#250 = FACE_OUTER_BOUND ( 'NONE', #119, .T. ) ;
#251 = ORIENTED_EDGE ( 'NONE', *, *, #292, .F. ) ;
#252 = CARTESIAN_POINT ( 'NONE',  ( -6.999999999999999112, 17.00000000000000000, 0.000000000000000000 ) ) ;
#253 = VECTOR ( 'NONE', #120, 1000.000000000000000 ) ;
#254 = APPLICATION_CONTEXT ( 'automotive_design' ) ;
#255 = AXIS2_PLACEMENT_3D ( 'NONE', #3, #122, #94 ) ;
#256 = ORIENTED_EDGE ( 'NONE', *, *, #358, .F. ) ;
#257 = FACE_BOUND ( 'NONE', #188, .T. ) ;
#258 = DIRECTION ( 'NONE',  ( 1.000000000000000000, 0.000000000000000000, 0.000000000000000000 ) ) ;
#259 = SHAPE_DEFINITION_REPRESENTATION ( #208, #373 ) ;
#260 = DIRECTION ( 'NONE',  ( 0.000000000000000000, 0.000000000000000000, 1.000000000000000000 ) ) ;
#261 =( REPRESENTATION_RELATIONSHIP ('NONE','NONE', #155, #373 ) REPRESENTATION_RELATIONSHIP_WITH_TRANSFORMATION ( #111 )SHAPE_REPRESENTATION_RELATIONSHIP( ) );
#262 = EDGE_CURVE ( 'NONE', #96, #47, #162, .T. ) ;
#263 = DIRECTION ( 'NONE',  ( 0.000000000000000000, 0.000000000000000000, -1.000000000000000000 ) ) ;
#264 = PLANE ( 'NONE',  #93 ) ;
#265 =( GEOMETRIC_REPRESENTATION_CONTEXT ( 3 ) GLOBAL_UNCERTAINTY_ASSIGNED_CONTEXT ( ( #4 ) ) GLOBAL_UNIT_ASSIGNED_CONTEXT ( ( #24, #80, #108 ) ) REPRESENTATION_CONTEXT ( 'NONE', 'WORKASPACE' ) );
#266 = VECTOR ( 'NONE', #314, 1000.000000000000000 ) ;
#267 = ORIENTED_EDGE ( 'NONE', *, *, #145, .T. ) ;
#268 = UNCERTAINTY_MEASURE_WITH_UNIT (LENGTH_MEASURE( 1.000000000000000082E-05 ), #53, 'distance_accuracy_value', 'NONE');
#269 = FACE_OUTER_BOUND ( 'NONE', #132, .T. ) ;
#270 = VECTOR ( 'NONE', #169, 1000.000000000000000 ) ;
#271 = ORIENTED_EDGE ( 'NONE', *, *, #89, .T. ) ;
#272 = PRODUCT ( 'PR4020S3 \X2\041f0440043e04440438043b044c\X0\ \X2\0430043b044e043c0438043d043804350432044b0439\X0\, \X2\043f0440044f043c043e04430433043e043b044c043d0438043a\X0\ 40x20x2 (\X2\0410043d\X0\. \X2\044104350440043504310440043e\X0\)_00', 'PR4020S3 \X2\041f0440043e04440438043b044c\X0\ \X2\0430043b044e043c0438043d043804350432044b0439\X0\, \X2\043f0440044f043c043e04430433043e043b044c043d0438043a\X0\ 40x20x2 (\X2\0410043d\X0\. \X2\044104350440043504310440043e\X0\)_00', '', ( #322 ) ) ;
#273 = DIRECTION ( 'NONE',  ( -1.000000000000000000, 0.000000000000000000, 0.000000000000000000 ) ) ;
#274 = ADVANCED_FACE ( 'NONE', ( #339 ), #102, .F. ) ;
#275 = ORIENTED_EDGE ( 'NONE', *, *, #228, .F. ) ;
#276 = LINE ( 'NONE', #252, #18 ) ;
#277 = ORIENTED_EDGE ( 'NONE', *, *, #316, .T. ) ;
#278 = DIRECTION ( 'NONE',  ( -1.000000000000000000, 0.000000000000000000, 0.000000000000000000 ) ) ;
#279 = AXIS2_PLACEMENT_3D ( 'NONE', #129, #278, #247 ) ;
#280 = ADVANCED_FACE ( 'NONE', ( #43 ), #189, .T. ) ;
#281 = EDGE_LOOP ( 'NONE', ( #97, #101, #336, #105 ) ) ;
#282 = CARTESIAN_POINT ( 'NONE',  ( -6.999999999999999112, 17.00000000000000000, 0.000000000000000000 ) ) ;
#283 = LINE ( 'NONE', #240, #199 ) ;
#284 = ORIENTED_EDGE ( 'NONE', *, *, #44, .F. ) ;
#285 = FACE_OUTER_BOUND ( 'NONE', #37, .T. ) ;
#286 = ORIENTED_EDGE ( 'NONE', *, *, #236, .T. ) ;
#287 = PRESENTATION_STYLE_ASSIGNMENT (( #194 ) ) ;
#288 = VECTOR ( 'NONE', #69, 1000.000000000000000 ) ;
#289 = VECTOR ( 'NONE', #366, 1000.000000000000000 ) ;
#290 = CARTESIAN_POINT ( 'NONE',  ( 7.000000000000013323, -17.00000000000000000, 0.000000000000000000 ) ) ;
#291 =( LENGTH_UNIT ( ) NAMED_UNIT ( * ) SI_UNIT ( .MILLI., .METRE. ) );
#292 = EDGE_CURVE ( 'NONE', #96, #328, #158, .T. ) ;
#293 = PRODUCT_DEFINITION_SHAPE ( 'NONE', 'NONE',  #342 ) ;
#294 = LINE ( 'NONE', #195, #11 ) ;
#295 =( NAMED_UNIT ( * ) PLANE_ANGLE_UNIT ( ) SI_UNIT ( $, .RADIAN. ) );
#296 = VECTOR ( 'NONE', #367, 1000.000000000000000 ) ;
#297 = APPLICATION_CONTEXT ( 'automotive_design' ) ;
#298 = CARTESIAN_POINT ( 'NONE',  ( 7.000000000000013323, -17.00000000000000000, 1000.000000000000000 ) ) ;
#299 = LINE ( 'NONE', #355, #40 ) ;
#300 = FACE_OUTER_BOUND ( 'NONE', #363, .T. ) ;
#301 = LINE ( 'NONE', #38, #180 ) ;
#302 = CLOSED_SHELL ( 'NONE', ( #205, #353, #248, #348, #56, #274, #49, #280, #114, #201 ) ) ;
#303 = ORIENTED_EDGE ( 'NONE', *, *, #89, .F. ) ;
#304 = SURFACE_SIDE_STYLE ('',( #65 ) ) ;
#305 = CARTESIAN_POINT ( 'NONE',  ( -6.999999999999999112, -17.00000000000000000, 1000.000000000000000 ) ) ;
#306 = CARTESIAN_POINT ( 'NONE',  ( -10.00000000000000000, -20.00000000000000000, 0.000000000000000000 ) ) ;
#307 = PLANE ( 'NONE',  #55 ) ;
#308 = EDGE_CURVE ( 'NONE', #156, #45, #51, .T. ) ;
#309 = ORIENTED_EDGE ( 'NONE', *, *, #316, .F. ) ;
#310 = DIRECTION ( 'NONE',  ( 1.000000000000000000, 0.000000000000000000, 0.000000000000000000 ) ) ;
#311 = AXIS2_PLACEMENT_3D ( 'NONE', #87, #73, #163 ) ;
#312 = ORIENTED_EDGE ( 'NONE', *, *, #308, .F. ) ;
#313 = DIRECTION ( 'NONE',  ( -0.000000000000000000, -0.000000000000000000, -1.000000000000000000 ) ) ;
#314 = DIRECTION ( 'NONE',  ( 1.000000000000000000, 0.000000000000000000, 0.000000000000000000 ) ) ;
#315 = AXIS2_PLACEMENT_3D ( 'NONE', #341, #260, #20 ) ;
#316 = EDGE_CURVE ( 'NONE', #15, #328, #276, .T. ) ;
#317 = DIRECTION ( 'NONE',  ( 0.000000000000000000, 0.000000000000000000, 1.000000000000000000 ) ) ;
#318 = LINE ( 'NONE', #227, #219 ) ;
#319 = LINE ( 'NONE', #349, #58 ) ;
#320 = DIRECTION ( 'NONE',  ( -0.000000000000000000, -0.000000000000000000, -1.000000000000000000 ) ) ;
#321 = LINE ( 'NONE', #21, #270 ) ;
#322 = PRODUCT_CONTEXT ( 'NONE', #133, 'mechanical' ) ;
#323 = DIRECTION ( 'NONE',  ( 1.000000000000000000, 0.000000000000000000, 0.000000000000000000 ) ) ;
#324 = PRODUCT_DEFINITION_CONTEXT ( 'detailed design', #182, 'design' ) ;
#325 = STYLED_ITEM ( 'NONE', ( #287 ), #354 ) ;
#326 = ORIENTED_EDGE ( 'NONE', *, *, #262, .F. ) ;
#327 = EDGE_CURVE ( 'NONE', #109, #193, #165, .T. ) ;
#328 = VERTEX_POINT ( 'NONE', #282 ) ;
#329 = FILL_AREA_STYLE_COLOUR ( '', #332 ) ;
#330 = AXIS2_PLACEMENT_3D ( 'NONE', #374, #221, #78 ) ;
#331 = VECTOR ( 'NONE', #333, 1000.000000000000000 ) ;
#332 = COLOUR_RGB ( '',0.8666666666666666963, 0.9098039215686274384, 1.000000000000000000 ) ;
#333 = DIRECTION ( 'NONE',  ( -0.000000000000000000, -1.000000000000000000, -0.000000000000000000 ) ) ;
#334 = VERTEX_POINT ( 'NONE', #104 ) ;
#335 = PLANE ( 'NONE',  #181 ) ;
#336 = ORIENTED_EDGE ( 'NONE', *, *, #152, .F. ) ;
#337 = FILL_AREA_STYLE ('',( #329 ) ) ;
#338 = ORIENTED_EDGE ( 'NONE', *, *, #82, .T. ) ;
#339 = FACE_OUTER_BOUND ( 'NONE', #281, .T. ) ;
#340 = VERTEX_POINT ( 'NONE', #215 ) ;
#341 = CARTESIAN_POINT ( 'NONE',  ( 0.000000000000000000, 0.000000000000000000, 0.000000000000000000 ) ) ;
#342 = PRODUCT_DEFINITION ( 'UNKNOWN', '', #90, #232 ) ;
#343 = ORIENTED_EDGE ( 'NONE', *, *, #236, .F. ) ;
#344 =( GEOMETRIC_REPRESENTATION_CONTEXT ( 3 ) GLOBAL_UNCERTAINTY_ASSIGNED_CONTEXT ( ( #154 ) ) GLOBAL_UNIT_ASSIGNED_CONTEXT ( ( #291, #295, #110 ) ) REPRESENTATION_CONTEXT ( 'NONE', 'WORKASPACE' ) );
#345 = FACE_OUTER_BOUND ( 'NONE', #161, .T. ) ;
#346 = AXIS2_PLACEMENT_3D ( 'NONE', #226, #146, #112 ) ;
#347 = SHAPE_REPRESENTATION_RELATIONSHIP ( 'NONE' , 'NONE' ,  #373, #354 ) ;
#348 = ADVANCED_FACE ( 'NONE', ( #285 ), #335, .F. ) ;
#349 = CARTESIAN_POINT ( 'NONE',  ( -10.00000000000000000, 20.00000000000000000, 1000.000000000000000 ) ) ;
#350 = MANIFOLD_SOLID_BREP ( '\X2\0411043e0431044b0448043a0430\X0\-\X2\0412044b0442044f043d04430442044c\X0\1', #302 ) ;
#351 =( NAMED_UNIT ( * ) SI_UNIT ( $, .STERADIAN. ) SOLID_ANGLE_UNIT ( ) );
#352 = STYLED_ITEM ( 'NONE', ( #8 ), #350 ) ;
#353 = ADVANCED_FACE ( 'NONE', ( #345, #257 ), #71, .T. ) ;
#354 = ADVANCED_BREP_SHAPE_REPRESENTATION ( '', ( #350, #81 ), #344 ) ;
#355 = CARTESIAN_POINT ( 'NONE',  ( -6.999999999999999112, -17.00000000000000000, 1000.000000000000000 ) ) ;
#356 = ORIENTED_EDGE ( 'NONE', *, *, #28, .F. ) ;
#357 = CARTESIAN_POINT ( 'NONE',  ( 0.000000000000000000, 0.000000000000000000, 1000.000000000000000 ) ) ;
#358 = EDGE_CURVE ( 'NONE', #164, #244, #88, .T. ) ;
#359 = ORIENTED_EDGE ( 'NONE', *, *, #262, .T. ) ;
#360 = DIRECTION ( 'NONE',  ( 1.000000000000000000, 0.000000000000000000, 0.000000000000000000 ) ) ;
#361 = PRODUCT_DEFINITION_FORMATION_WITH_SPECIFIED_SOURCE ( 'ANY', '', #272, .NOT_KNOWN. ) ;
#362 = VECTOR ( 'NONE', #360, 1000.000000000000000 ) ;
#363 = EDGE_LOOP ( 'NONE', ( #249, #271, #202, #72 ) ) ;
#364 = CARTESIAN_POINT ( 'NONE',  ( 10.00000000000000000, -20.00000000000000000, 1000.000000000000000 ) ) ;
#365 = LINE ( 'NONE', #306, #296 ) ;
#366 = DIRECTION ( 'NONE',  ( 0.000000000000000000, 1.000000000000000000, 0.000000000000000000 ) ) ;
#367 = DIRECTION ( 'NONE',  ( -0.000000000000000000, -1.000000000000000000, -0.000000000000000000 ) ) ;
#368 = COLOUR_RGB ( '',0.8666666666666666963, 0.9098039215686274384, 1.000000000000000000 ) ;
#369 = ORIENTED_EDGE ( 'NONE', *, *, #190, .F. ) ;
#370 = EDGE_LOOP ( 'NONE', ( #309, #9, #130, #222 ) ) ;
#371 = PRODUCT_CONTEXT ( 'NONE', #254, 'mechanical' ) ;
#372 = CONTEXT_DEPENDENT_SHAPE_REPRESENTATION ( #261, #54 ) ;
#373 = SHAPE_REPRESENTATION ( 'PR4020S3 \X2\041f0440043e04440438043b044c\X0\ \X2\0430043b044e043c0438043d043804350432044b0439\X0\, \X2\043f0440044f043c043e04430433043e043b044c043d0438043a\X0\ 40x20x2 (\X2\0410043d\X0\. \X2\044104350440043504310440043e\X0\)_00', ( #81 ), #344 ) ;
#374 = CARTESIAN_POINT ( 'NONE',  ( 0.000000000000000000, 0.000000000000000000, 0.000000000000000000 ) ) ;
#375 = NEXT_ASSEMBLY_USAGE_OCCURRENCE ( 'NAUO1', ' ', ' ', #342, #68, $ ) ;
ENDSEC;
END-ISO-10303-21;
