ISO-10303-21;
HEADER;
FILE_DESCRIPTION (( 'STEP AP214' ),
    '1' );
FILE_NAME ('Ñáîðêà7.STEP',
    '2025-01-29T13:45:48',
    ( '' ),
    ( '' ),
    'SwSTEP 2.0',
    'SolidWorks 2024',
    '' );
FILE_SCHEMA (( 'AUTOMOTIVE_DESIGN' ));
ENDSEC;

DATA;
#1 = VECTOR ( 'NONE', #34, 1000.000000000000000 ) ;
#2 = ADVANCED_FACE ( 'NONE', ( #26 ), #100, .F. ) ;
#3 = CARTESIAN_POINT ( 'NONE',  ( 0.000000000000000000, 0.000000000000000000, 0.000000000000000000 ) ) ;
#4 = PRESENTATION_LAYER_ASSIGNMENT (  '', '', ( #70 ) ) ;
#5 = EDGE_LOOP ( 'NONE', ( #46, #123, #98, #81 ) ) ;
#6 = EDGE_CURVE ( 'NONE', #176, #228, #195, .T. ) ;
#7 = SHAPE_REPRESENTATION ( 'TR28S2 \X2\041f0440043e04440438043b044c\X0\ \X2\0430043b044e043c0438043d043804350432044b0439\X0\, \X2\04420440044304310430\X0\ \X2\00d8\X0\28\X2\0445\X0\2 (\X2\0410043d\X0\. \X2\044104350440043504310440043e\X0\)_00', ( #74 ), #178 ) ;
#8 = ORIENTED_EDGE ( 'NONE', *, *, #151, .F. ) ;
#9 = FACE_OUTER_BOUND ( 'NONE', #193, .T. ) ;
#10 = VECTOR ( 'NONE', #109, 1000.000000000000000 ) ;
#11 = CARTESIAN_POINT ( 'NONE',  ( 13.99999999999999822, 1.714505518806294441E-15, 1000.000000000000000 ) ) ;
#12 = DIRECTION ( 'NONE',  ( 1.000000000000000000, 0.000000000000000000, 0.000000000000000000 ) ) ;
#13 = CARTESIAN_POINT ( 'NONE',  ( 13.99999999999999822, 1.714505518806294441E-15, 1000.000000000000000 ) ) ;
#14 = CARTESIAN_POINT ( 'NONE',  ( -12.00000000000000178, 0.000000000000000000, 1000.000000000000000 ) ) ;
#15 = PRODUCT_DEFINITION ( 'UNKNOWN', '', #194, #38 ) ;
#16 = ADVANCED_BREP_SHAPE_REPRESENTATION ( '', ( #68, #74 ), #178 ) ;
#17 = CIRCLE ( 'NONE', #182, 13.99999999999999822 ) ;
#18 = DIRECTION ( 'NONE',  ( 0.000000000000000000, 0.000000000000000000, 1.000000000000000000 ) ) ;
#19 = EDGE_LOOP ( 'NONE', ( #203, #192 ) ) ;
#20 = CARTESIAN_POINT ( 'NONE',  ( 0.000000000000000000, 0.000000000000000000, 0.000000000000000000 ) ) ;
#21 =( LENGTH_UNIT ( ) NAMED_UNIT ( * ) SI_UNIT ( .MILLI., .METRE. ) );
#22 = CIRCLE ( 'NONE', #80, 12.00000000000000178 ) ;
#23 = ORIENTED_EDGE ( 'NONE', *, *, #35, .T. ) ;
#24 = EDGE_LOOP ( 'NONE', ( #103, #104 ) ) ;
#25 = VERTEX_POINT ( 'NONE', #11 ) ;
#26 = FACE_OUTER_BOUND ( 'NONE', #156, .T. ) ;
#27 = VECTOR ( 'NONE', #226, 1000.000000000000000 ) ;
#28 = AXIS2_PLACEMENT_3D ( 'NONE', #75, #150, #95 ) ;
#29 = CARTESIAN_POINT ( 'NONE',  ( -12.00000000000000178, 0.000000000000000000, 1000.000000000000000 ) ) ;
#30 = PRODUCT_DEFINITION_SHAPE ( 'NONE', 'NONE',  #132 ) ;
#31 = DIRECTION ( 'NONE',  ( -0.000000000000000000, -0.000000000000000000, -1.000000000000000000 ) ) ;
#32 = AXIS2_PLACEMENT_3D ( 'NONE', #88, #31, #108 ) ;
#33 = PRODUCT_DEFINITION_FORMATION_WITH_SPECIFIED_SOURCE ( 'ANY', '', #97, .NOT_KNOWN. ) ;
#34 = DIRECTION ( 'NONE',  ( -0.000000000000000000, -0.000000000000000000, -1.000000000000000000 ) ) ;
#35 = EDGE_CURVE ( 'NONE', #84, #163, #136, .T. ) ;
#36 = DIRECTION ( 'NONE',  ( 0.000000000000000000, 0.000000000000000000, 1.000000000000000000 ) ) ;
#37 = DIRECTION ( 'NONE',  ( 0.000000000000000000, 0.000000000000000000, 1.000000000000000000 ) ) ;
#38 = PRODUCT_DEFINITION_CONTEXT ( 'detailed design', #162, 'design' ) ;
#39 = DIRECTION ( 'NONE',  ( 0.000000000000000000, 0.000000000000000000, 1.000000000000000000 ) ) ;
#40 = APPLICATION_CONTEXT ( 'automotive_design' ) ;
#41 = DIRECTION ( 'NONE',  ( 1.000000000000000000, 0.000000000000000000, 0.000000000000000000 ) ) ;
#42 = ADVANCED_FACE ( 'NONE', ( #157 ), #225, .T. ) ;
#43 = PRODUCT_DEFINITION_SHAPE ( 'NONE', 'NONE',  #15 ) ;
#44 = ORIENTED_EDGE ( 'NONE', *, *, #158, .F. ) ;
#45 = DIRECTION ( 'NONE',  ( -1.000000000000000000, 0.000000000000000000, 0.000000000000000000 ) ) ;
#46 = ORIENTED_EDGE ( 'NONE', *, *, #158, .T. ) ;
#47 = DIRECTION ( 'NONE',  ( -1.000000000000000000, 0.000000000000000000, 0.000000000000000000 ) ) ;
#48 = AXIS2_PLACEMENT_3D ( 'NONE', #161, #209, #124 ) ;
#49 = APPLICATION_CONTEXT ( 'automotive_design' ) ;
#50 = FACE_OUTER_BOUND ( 'NONE', #5, .T. ) ;
#51 = CYLINDRICAL_SURFACE ( 'NONE', #32, 12.00000000000000178 ) ;
#52 = CARTESIAN_POINT ( 'NONE',  ( 0.000000000000000000, 0.000000000000000000, 1000.000000000000000 ) ) ;
#53 = AXIS2_PLACEMENT_3D ( 'NONE', #180, #36, #69 ) ;
#54 = DIRECTION ( 'NONE',  ( 1.000000000000000000, 0.000000000000000000, 0.000000000000000000 ) ) ;
#55 = PRESENTATION_STYLE_ASSIGNMENT (( #87 ) ) ;
#56 = DIRECTION ( 'NONE',  ( 0.000000000000000000, 0.000000000000000000, 1.000000000000000000 ) ) ;
#57 = ORIENTED_EDGE ( 'NONE', *, *, #222, .F. ) ;
#58 = ADVANCED_FACE ( 'NONE', ( #9 ), #206, .T. ) ;
#59 = CIRCLE ( 'NONE', #125, 13.99999999999999822 ) ;
#60 = CONTEXT_DEPENDENT_SHAPE_REPRESENTATION ( #191, #174 ) ;
#61 = ORIENTED_EDGE ( 'NONE', *, *, #200, .F. ) ;
#62 = AXIS2_PLACEMENT_3D ( 'NONE', #3, #96, #216 ) ;
#63 = DIRECTION ( 'NONE',  ( -0.000000000000000000, -0.000000000000000000, -1.000000000000000000 ) ) ;
#64 = ORIENTED_EDGE ( 'NONE', *, *, #200, .T. ) ;
#65 = DIRECTION ( 'NONE',  ( 1.000000000000000000, 0.000000000000000000, 0.000000000000000000 ) ) ;
#66 = CIRCLE ( 'NONE', #186, 12.00000000000000178 ) ;
#67 = CARTESIAN_POINT ( 'NONE',  ( -13.99999999999999822, 0.000000000000000000, 0.000000000000000000 ) ) ;
#68 = MANIFOLD_SOLID_BREP ( '\X2\0411043e0431044b0448043a0430\X0\-\X2\0412044b0442044f043d04430442044c\X0\1', #233 ) ;
#69 = DIRECTION ( 'NONE',  ( 1.000000000000000000, 0.000000000000000000, -0.000000000000000000 ) ) ;
#70 = STYLED_ITEM ( 'NONE', ( #55 ), #68 ) ;
#71 = CARTESIAN_POINT ( 'NONE',  ( 0.000000000000000000, 0.000000000000000000, 1000.000000000000000 ) ) ;
#72 = CARTESIAN_POINT ( 'NONE',  ( -12.00000000000000178, 0.000000000000000000, 0.000000000000000000 ) ) ;
#73 = CARTESIAN_POINT ( 'NONE',  ( 996.7539758729768664, 1006.264176258616430, 496.9828658904978056 ) ) ;
#74 = AXIS2_PLACEMENT_3D ( 'NONE', #134, #148, #113 ) ;
#75 = CARTESIAN_POINT ( 'NONE',  ( 0.000000000000000000, 0.000000000000000000, 0.000000000000000000 ) ) ;
#76 = PRODUCT_CONTEXT ( 'NONE', #40, 'mechanical' ) ;
#77 = ADVANCED_FACE ( 'NONE', ( #168, #129 ), #93, .F. ) ;
#78 = PRODUCT ( '\X2\04210431043e0440043a0430\X0\7', '\X2\04210431043e0440043a0430\X0\7', '', ( #76 ) ) ;
#79 = PRODUCT_CONTEXT ( 'NONE', #224, 'mechanical' ) ;
#80 = AXIS2_PLACEMENT_3D ( 'NONE', #181, #147, #166 ) ;
#81 = ORIENTED_EDGE ( 'NONE', *, *, #6, .F. ) ;
#82 = EDGE_LOOP ( 'NONE', ( #159, #208, #64, #173 ) ) ;
#83 = ADVANCED_FACE ( 'NONE', ( #92, #229 ), #128, .T. ) ;
#84 = VERTEX_POINT ( 'NONE', #142 ) ;
#85 = UNCERTAINTY_MEASURE_WITH_UNIT (LENGTH_MEASURE( 1.000000000000000082E-05 ), #21, 'distance_accuracy_value', 'NONE');
#86 = ORIENTED_EDGE ( 'NONE', *, *, #202, .T. ) ;
#87 = SURFACE_STYLE_USAGE ( .BOTH. , #127 ) ;
#88 = CARTESIAN_POINT ( 'NONE',  ( 0.000000000000000000, 0.000000000000000000, 1000.000000000000000 ) ) ;
#89 = CIRCLE ( 'NONE', #199, 13.99999999999999822 ) ;
#90 = PRODUCT_RELATED_PRODUCT_CATEGORY ( 'part', '', ( #97 ) ) ;
#91 =( NAMED_UNIT ( * ) SI_UNIT ( $, .STERADIAN. ) SOLID_ANGLE_UNIT ( ) );
#92 = FACE_OUTER_BOUND ( 'NONE', #24, .T. ) ;
#93 = PLANE ( 'NONE',  #138 ) ;
#94 =( NAMED_UNIT ( * ) PLANE_ANGLE_UNIT ( ) SI_UNIT ( $, .RADIAN. ) );
#95 = DIRECTION ( 'NONE',  ( 1.000000000000000000, 0.000000000000000000, 0.000000000000000000 ) ) ;
#96 = DIRECTION ( 'NONE',  ( 0.000000000000000000, 0.000000000000000000, 1.000000000000000000 ) ) ;
#97 = PRODUCT ( 'TR28S2 \X2\041f0440043e04440438043b044c\X0\ \X2\0430043b044e043c0438043d043804350432044b0439\X0\, \X2\04420440044304310430\X0\ \X2\00d8\X0\28\X2\0445\X0\2 (\X2\0410043d\X0\. \X2\044104350440043504310440043e\X0\)_00', 'TR28S2 \X2\041f0440043e04440438043b044c\X0\ \X2\0430043b044e043c0438043d043804350432044b0439\X0\, \X2\04420440044304310430\X0\ \X2\00d8\X0\28\X2\0445\X0\2 (\X2\0410043d\X0\. \X2\044104350440043504310440043e\X0\)_00', '', ( #79 ) ) ;
#98 = ORIENTED_EDGE ( 'NONE', *, *, #213, .F. ) ;
#99 = ORIENTED_EDGE ( 'NONE', *, *, #6, .T. ) ;
#100 = CYLINDRICAL_SURFACE ( 'NONE', #111, 12.00000000000000178 ) ;
#101 = MECHANICAL_DESIGN_GEOMETRIC_PRESENTATION_REPRESENTATION (  '', ( #70 ), #218 ) ;
#102 = EDGE_CURVE ( 'NONE', #84, #25, #149, .T. ) ;
#103 = ORIENTED_EDGE ( 'NONE', *, *, #102, .T. ) ;
#104 = ORIENTED_EDGE ( 'NONE', *, *, #146, .T. ) ;
#105 = DIRECTION ( 'NONE',  ( 0.000000000000000000, 0.000000000000000000, 1.000000000000000000 ) ) ;
#106 = LINE ( 'NONE', #230, #10 ) ;
#107 = AXIS2_PLACEMENT_3D ( 'NONE', #73, #56, #220 ) ;
#108 = DIRECTION ( 'NONE',  ( -1.000000000000000000, 0.000000000000000000, 0.000000000000000000 ) ) ;
#109 = DIRECTION ( 'NONE',  ( -0.000000000000000000, -0.000000000000000000, -1.000000000000000000 ) ) ;
#110 = SURFACE_STYLE_FILL_AREA ( #143 ) ;
#111 = AXIS2_PLACEMENT_3D ( 'NONE', #119, #126, #45 ) ;
#112 =( GEOMETRIC_REPRESENTATION_CONTEXT ( 3 ) GLOBAL_UNCERTAINTY_ASSIGNED_CONTEXT ( ( #85 ) ) GLOBAL_UNIT_ASSIGNED_CONTEXT ( ( #21, #94, #204 ) ) REPRESENTATION_CONTEXT ( 'NONE', 'WORKASPACE' ) );
#113 = DIRECTION ( 'NONE',  ( 1.000000000000000000, 0.000000000000000000, 0.000000000000000000 ) ) ;
#114 = CARTESIAN_POINT ( 'NONE',  ( 0.000000000000000000, 0.000000000000000000, 0.000000000000000000 ) ) ;
#115 = EDGE_LOOP ( 'NONE', ( #205, #61 ) ) ;
#116 = APPLICATION_PROTOCOL_DEFINITION ( 'draft international standard', 'automotive_design', 1998, #224 ) ;
#117 = ORIENTED_EDGE ( 'NONE', *, *, #202, .F. ) ;
#118 =( LENGTH_UNIT ( ) NAMED_UNIT ( * ) SI_UNIT ( .MILLI., .METRE. ) );
#119 = CARTESIAN_POINT ( 'NONE',  ( 0.000000000000000000, 0.000000000000000000, 1000.000000000000000 ) ) ;
#120 = EDGE_CURVE ( 'NONE', #25, #223, #198, .T. ) ;
#121 = AXIS2_PLACEMENT_3D ( 'NONE', #52, #105, #12 ) ;
#122 = ORIENTED_EDGE ( 'NONE', *, *, #120, .F. ) ;
#123 = ORIENTED_EDGE ( 'NONE', *, *, #151, .T. ) ;
#124 = DIRECTION ( 'NONE',  ( -1.000000000000000000, 0.000000000000000000, 0.000000000000000000 ) ) ;
#125 = AXIS2_PLACEMENT_3D ( 'NONE', #164, #130, #165 ) ;
#126 = DIRECTION ( 'NONE',  ( -0.000000000000000000, -0.000000000000000000, -1.000000000000000000 ) ) ;
#127 = SURFACE_SIDE_STYLE ('',( #110 ) ) ;
#128 = PLANE ( 'NONE',  #53 ) ;
#129 = FACE_BOUND ( 'NONE', #19, .T. ) ;
#130 = DIRECTION ( 'NONE',  ( 0.000000000000000000, 0.000000000000000000, 1.000000000000000000 ) ) ;
#131 =( NAMED_UNIT ( * ) PLANE_ANGLE_UNIT ( ) SI_UNIT ( $, .RADIAN. ) );
#132 = PRODUCT_DEFINITION ( 'UNKNOWN', '', #33, #153 ) ;
#133 = EDGE_LOOP ( 'NONE', ( #44, #117 ) ) ;
#134 = CARTESIAN_POINT ( 'NONE',  ( 0.000000000000000000, 0.000000000000000000, 0.000000000000000000 ) ) ;
#135 = ADVANCED_FACE ( 'NONE', ( #50 ), #51, .F. ) ;
#136 = LINE ( 'NONE', #171, #160 ) ;
#137 = CARTESIAN_POINT ( 'NONE',  ( 0.000000000000000000, 0.000000000000000000, 1000.000000000000000 ) ) ;
#138 = AXIS2_PLACEMENT_3D ( 'NONE', #183, #145, #234 ) ;
#139 = ORIENTED_EDGE ( 'NONE', *, *, #102, .F. ) ;
#140 = VERTEX_POINT ( 'NONE', #197 ) ;
#141 = CIRCLE ( 'NONE', #62, 12.00000000000000178 ) ;
#142 = CARTESIAN_POINT ( 'NONE',  ( -13.99999999999999822, 0.000000000000000000, 1000.000000000000000 ) ) ;
#143 = FILL_AREA_STYLE ('',( #196 ) ) ;
#144 =( NAMED_UNIT ( * ) PLANE_ANGLE_UNIT ( ) SI_UNIT ( $, .RADIAN. ) );
#145 = DIRECTION ( 'NONE',  ( 0.000000000000000000, 0.000000000000000000, 1.000000000000000000 ) ) ;
#146 = EDGE_CURVE ( 'NONE', #25, #84, #59, .T. ) ;
#147 = DIRECTION ( 'NONE',  ( 0.000000000000000000, 0.000000000000000000, 1.000000000000000000 ) ) ;
#148 = DIRECTION ( 'NONE',  ( 0.000000000000000000, 0.000000000000000000, 1.000000000000000000 ) ) ;
#149 = CIRCLE ( 'NONE', #121, 13.99999999999999822 ) ;
#150 = DIRECTION ( 'NONE',  ( 0.000000000000000000, 0.000000000000000000, 1.000000000000000000 ) ) ;
#151 = EDGE_CURVE ( 'NONE', #210, #140, #106, .T. ) ;
#152 = APPLICATION_PROTOCOL_DEFINITION ( 'draft international standard', 'automotive_design', 1998, #162 ) ;
#153 = PRODUCT_DEFINITION_CONTEXT ( 'detailed design', #49, 'design' ) ;
#154 = ITEM_DEFINED_TRANSFORMATION ( 'NONE', 'NONE', #107,  #74 ) ;
#155 = AXIS2_PLACEMENT_3D ( 'NONE', #137, #63, #47 ) ;
#156 = EDGE_LOOP ( 'NONE', ( #8, #86, #99, #57 ) ) ;
#157 = FACE_OUTER_BOUND ( 'NONE', #82, .T. ) ;
#158 = EDGE_CURVE ( 'NONE', #176, #210, #66, .T. ) ;
#159 = ORIENTED_EDGE ( 'NONE', *, *, #146, .F. ) ;
#160 = VECTOR ( 'NONE', #175, 1000.000000000000000 ) ;
#161 = CARTESIAN_POINT ( 'NONE',  ( 0.000000000000000000, 0.000000000000000000, 1000.000000000000000 ) ) ;
#162 = APPLICATION_CONTEXT ( 'automotive_design' ) ;
#163 = VERTEX_POINT ( 'NONE', #67 ) ;
#164 = CARTESIAN_POINT ( 'NONE',  ( 0.000000000000000000, 0.000000000000000000, 1000.000000000000000 ) ) ;
#165 = DIRECTION ( 'NONE',  ( 1.000000000000000000, 0.000000000000000000, 0.000000000000000000 ) ) ;
#166 = DIRECTION ( 'NONE',  ( 1.000000000000000000, 0.000000000000000000, 0.000000000000000000 ) ) ;
#167 = CARTESIAN_POINT ( 'NONE',  ( 0.000000000000000000, 0.000000000000000000, 0.000000000000000000 ) ) ;
#168 = FACE_OUTER_BOUND ( 'NONE', #115, .T. ) ;
#169 = APPLICATION_PROTOCOL_DEFINITION ( 'draft international standard', 'automotive_design', 1998, #40 ) ;
#170 = SHAPE_DEFINITION_REPRESENTATION ( #30, #7 ) ;
#171 = CARTESIAN_POINT ( 'NONE',  ( -13.99999999999999822, 0.000000000000000000, 1000.000000000000000 ) ) ;
#172 = PRODUCT_RELATED_PRODUCT_CATEGORY ( 'part', '', ( #78 ) ) ;
#173 = ORIENTED_EDGE ( 'NONE', *, *, #35, .F. ) ;
#174 = PRODUCT_DEFINITION_SHAPE ( 'NONE', 'NONE',  #236 ) ;
#175 = DIRECTION ( 'NONE',  ( -0.000000000000000000, -0.000000000000000000, -1.000000000000000000 ) ) ;
#176 = VERTEX_POINT ( 'NONE', #14 ) ;
#177 =( LENGTH_UNIT ( ) NAMED_UNIT ( * ) SI_UNIT ( .MILLI., .METRE. ) );
#178 =( GEOMETRIC_REPRESENTATION_CONTEXT ( 3 ) GLOBAL_UNCERTAINTY_ASSIGNED_CONTEXT ( ( #217 ) ) GLOBAL_UNIT_ASSIGNED_CONTEXT ( ( #118, #131, #201 ) ) REPRESENTATION_CONTEXT ( 'NONE', 'WORKASPACE' ) );
#179 = CARTESIAN_POINT ( 'NONE',  ( 0.000000000000000000, 0.000000000000000000, 0.000000000000000000 ) ) ;
#180 = CARTESIAN_POINT ( 'NONE',  ( 0.000000000000000000, 0.000000000000000000, 1000.000000000000000 ) ) ;
#181 = CARTESIAN_POINT ( 'NONE',  ( 0.000000000000000000, 0.000000000000000000, 1000.000000000000000 ) ) ;
#182 = AXIS2_PLACEMENT_3D ( 'NONE', #179, #37, #215 ) ;
#183 = CARTESIAN_POINT ( 'NONE',  ( 0.000000000000000000, 0.000000000000000000, 0.000000000000000000 ) ) ;
#184 = SHAPE_REPRESENTATION_RELATIONSHIP ( 'NONE' , 'NONE' ,  #7, #16 ) ;
#185 = DIRECTION ( 'NONE',  ( 1.000000000000000000, 0.000000000000000000, 0.000000000000000000 ) ) ;
#186 = AXIS2_PLACEMENT_3D ( 'NONE', #71, #212, #65 ) ;
#187 = APPLICATION_PROTOCOL_DEFINITION ( 'draft international standard', 'automotive_design', 1998, #49 ) ;
#188 = ORIENTED_EDGE ( 'NONE', *, *, #227, .T. ) ;
#189 = SHAPE_REPRESENTATION ( '\X2\04210431043e0440043a0430\X0\7', ( #28, #107 ), #112 ) ;
#190 = CIRCLE ( 'NONE', #214, 12.00000000000000178 ) ;
#191 =( REPRESENTATION_RELATIONSHIP ('NONE','NONE', #189, #7 ) REPRESENTATION_RELATIONSHIP_WITH_TRANSFORMATION ( #154 )SHAPE_REPRESENTATION_RELATIONSHIP( ) );
#192 = ORIENTED_EDGE ( 'NONE', *, *, #222, .T. ) ;
#193 = EDGE_LOOP ( 'NONE', ( #122, #139, #23, #188 ) ) ;
#194 = PRODUCT_DEFINITION_FORMATION_WITH_SPECIFIED_SOURCE ( 'ANY', '', #78, .NOT_KNOWN. ) ;
#195 = LINE ( 'NONE', #29, #27 ) ;
#196 = FILL_AREA_STYLE_COLOUR ( '', #211 ) ;
#197 = CARTESIAN_POINT ( 'NONE',  ( 12.00000000000000178, 1.469576158976824144E-15, 0.000000000000000000 ) ) ;
#198 = LINE ( 'NONE', #13, #1 ) ;
#199 = AXIS2_PLACEMENT_3D ( 'NONE', #114, #18, #41 ) ;
#200 = EDGE_CURVE ( 'NONE', #223, #163, #17, .T. ) ;
#201 =( NAMED_UNIT ( * ) SI_UNIT ( $, .STERADIAN. ) SOLID_ANGLE_UNIT ( ) );
#202 = EDGE_CURVE ( 'NONE', #210, #176, #22, .T. ) ;
#203 = ORIENTED_EDGE ( 'NONE', *, *, #213, .T. ) ;
#204 =( NAMED_UNIT ( * ) SI_UNIT ( $, .STERADIAN. ) SOLID_ANGLE_UNIT ( ) );
#205 = ORIENTED_EDGE ( 'NONE', *, *, #227, .F. ) ;
#206 = CYLINDRICAL_SURFACE ( 'NONE', #48, 13.99999999999999822 ) ;
#207 = AXIS2_PLACEMENT_3D ( 'NONE', #20, #39, #185 ) ;
#208 = ORIENTED_EDGE ( 'NONE', *, *, #120, .T. ) ;
#209 = DIRECTION ( 'NONE',  ( -0.000000000000000000, -0.000000000000000000, -1.000000000000000000 ) ) ;
#210 = VERTEX_POINT ( 'NONE', #231 ) ;
#211 = COLOUR_RGB ( '',0.7921568627450980005, 0.8196078431372548767, 0.9333333333333333481 ) ;
#212 = DIRECTION ( 'NONE',  ( 0.000000000000000000, 0.000000000000000000, 1.000000000000000000 ) ) ;
#213 = EDGE_CURVE ( 'NONE', #228, #140, #190, .T. ) ;
#214 = AXIS2_PLACEMENT_3D ( 'NONE', #167, #232, #54 ) ;
#215 = DIRECTION ( 'NONE',  ( 1.000000000000000000, 0.000000000000000000, 0.000000000000000000 ) ) ;
#216 = DIRECTION ( 'NONE',  ( 1.000000000000000000, 0.000000000000000000, 0.000000000000000000 ) ) ;
#217 = UNCERTAINTY_MEASURE_WITH_UNIT (LENGTH_MEASURE( 1.000000000000000082E-05 ), #118, 'distance_accuracy_value', 'NONE');
#218 =( GEOMETRIC_REPRESENTATION_CONTEXT ( 3 ) GLOBAL_UNCERTAINTY_ASSIGNED_CONTEXT ( ( #235 ) ) GLOBAL_UNIT_ASSIGNED_CONTEXT ( ( #177, #144, #91 ) ) REPRESENTATION_CONTEXT ( 'NONE', 'WORKASPACE' ) );
#219 = CARTESIAN_POINT ( 'NONE',  ( 13.99999999999999822, 1.714505518806294441E-15, 0.000000000000000000 ) ) ;
#220 = DIRECTION ( 'NONE',  ( 1.000000000000000000, 0.000000000000000000, 0.000000000000000000 ) ) ;
#221 = SHAPE_DEFINITION_REPRESENTATION ( #43, #189 ) ;
#222 = EDGE_CURVE ( 'NONE', #140, #228, #141, .T. ) ;
#223 = VERTEX_POINT ( 'NONE', #219 ) ;
#224 = APPLICATION_CONTEXT ( 'automotive_design' ) ;
#225 = CYLINDRICAL_SURFACE ( 'NONE', #155, 13.99999999999999822 ) ;
#226 = DIRECTION ( 'NONE',  ( -0.000000000000000000, -0.000000000000000000, -1.000000000000000000 ) ) ;
#227 = EDGE_CURVE ( 'NONE', #163, #223, #89, .T. ) ;
#228 = VERTEX_POINT ( 'NONE', #72 ) ;
#229 = FACE_BOUND ( 'NONE', #133, .T. ) ;
#230 = CARTESIAN_POINT ( 'NONE',  ( 12.00000000000000178, 1.469576158976824144E-15, 1000.000000000000000 ) ) ;
#231 = CARTESIAN_POINT ( 'NONE',  ( 12.00000000000000178, 1.469576158976824144E-15, 1000.000000000000000 ) ) ;
#232 = DIRECTION ( 'NONE',  ( 0.000000000000000000, 0.000000000000000000, 1.000000000000000000 ) ) ;
#233 = CLOSED_SHELL ( 'NONE', ( #135, #42, #83, #77, #58, #2 ) ) ;
#234 = DIRECTION ( 'NONE',  ( 1.000000000000000000, 0.000000000000000000, -0.000000000000000000 ) ) ;
#235 = UNCERTAINTY_MEASURE_WITH_UNIT (LENGTH_MEASURE( 1.000000000000000082E-05 ), #177, 'distance_accuracy_value', 'NONE');
#236 = NEXT_ASSEMBLY_USAGE_OCCURRENCE ( 'NAUO1', ' ', ' ', #15, #132, $ ) ;
ENDSEC;
END-ISO-10303-21;
