ISO-10303-21;
HEADER;
FILE_DESCRIPTION (( 'STEP AP214' ),
    '1' );
FILE_NAME ('A126 Âòóëêà äèñòàíöèîííàÿ 5õ1 4.STEP',
    '2024-11-25T12:49:21',
    ( '' ),
    ( '' ),
    'SwSTEP 2.0',
    'SolidWorks 2024',
    '' );
FILE_SCHEMA (( 'AUTOMOTIVE_DESIGN' ));
ENDSEC;

DATA;
#1 = CARTESIAN_POINT ( 'NONE',  ( 0.2000000000000013989, 0.000000000000000000, 2.649999999999999911 ) ) ;
#2 = CARTESIAN_POINT ( 'NONE',  ( 6.400000000000000355, 0.000000000000000000, 4.000000000000000000 ) ) ;
#3 = CIRCLE ( 'NONE', #9, 3.900000000000000799 ) ;
#4 = CARTESIAN_POINT ( 'NONE',  ( 0.000000000000000000, 0.000000000000000000, 2.850000000000000089 ) ) ;
#5 = VERTEX_POINT ( 'NONE', #18 ) ;
#6 = LINE ( 'NONE', #297, #237 ) ;
#7 = DIRECTION ( 'NONE',  ( 1.000000000000000000, 0.000000000000000000, 0.000000000000000000 ) ) ;
#8 = ORIENTED_EDGE ( 'NONE', *, *, #290, .T. ) ;
#9 = AXIS2_PLACEMENT_3D ( 'NONE', #46, #294, #347 ) ;
#10 = DIRECTION ( 'NONE',  ( -1.000000000000000000, -0.000000000000000000, -0.000000000000000000 ) ) ;
#11 = AXIS2_PLACEMENT_3D ( 'NONE', #275, #251, #219 ) ;
#12 = CARTESIAN_POINT ( 'NONE',  ( 6.400000000000000355, 0.000000000000000000, 0.000000000000000000 ) ) ;
#13 = ORIENTED_EDGE ( 'NONE', *, *, #137, .F. ) ;
#14 = ORIENTED_EDGE ( 'NONE', *, *, #342, .T. ) ;
#15 = ORIENTED_EDGE ( 'NONE', *, *, #179, .T. ) ;
#16 = AXIS2_PLACEMENT_3D ( 'NONE', #303, #167, #170 ) ;
#17 = DIRECTION ( 'NONE',  ( 1.000000000000000000, 0.000000000000000000, 0.000000000000000000 ) ) ;
#18 = CARTESIAN_POINT ( 'NONE',  ( 6.400000000000000355, 0.000000000000000000, 3.900000000000000799 ) ) ;
#19 = CYLINDRICAL_SURFACE ( 'NONE', #317, 2.649999999999999911 ) ;
#20 = LINE ( 'NONE', #105, #21 ) ;
#21 = VECTOR ( 'NONE', #23, 1000.000000000000114 ) ;
#22 = CIRCLE ( 'NONE', #339, 2.849999999999998312 ) ;
#23 = DIRECTION ( 'NONE',  ( -0.7071067811865499042, 8.659560562354904508E-17, -0.7071067811865452413 ) ) ;
#24 =( NAMED_UNIT ( * ) PLANE_ANGLE_UNIT ( ) SI_UNIT ( $, .RADIAN. ) );
#25 = ORIENTED_EDGE ( 'NONE', *, *, #149, .T. ) ;
#26 = SURFACE_STYLE_FILL_AREA ( #269 ) ;
#27 = AXIS2_PLACEMENT_3D ( 'NONE', #321, #181, #291 ) ;
#28 = ADVANCED_FACE ( 'NONE', ( #124 ), #19, .F. ) ;
#29 = DIRECTION ( 'NONE',  ( 1.000000000000000000, 0.000000000000000000, 0.000000000000000000 ) ) ;
#30 = CARTESIAN_POINT ( 'NONE',  ( 0.2000000000000013989, 0.000000000000000000, 0.000000000000000000 ) ) ;
#31 = CYLINDRICAL_SURFACE ( 'NONE', #215, 4.000000000000000000 ) ;
#32 = EDGE_CURVE ( 'NONE', #340, #314, #241, .T. ) ;
#33 = CONICAL_SURFACE ( 'NONE', #229, 3.900000000000000799, 0.7853981633974570498 ) ;
#34 = VECTOR ( 'NONE', #277, 1000.000000000000000 ) ;
#35 = LINE ( 'NONE', #272, #34 ) ;
#36 = DIRECTION ( 'NONE',  ( 0.000000000000000000, 0.000000000000000000, -1.000000000000000000 ) ) ;
#37 = VERTEX_POINT ( 'NONE', #148 ) ;
#38 = CARTESIAN_POINT ( 'NONE',  ( 6.400000000000000355, 0.000000000000000000, 0.000000000000000000 ) ) ;
#39 = DIRECTION ( 'NONE',  ( 0.000000000000000000, 0.000000000000000000, -1.000000000000000000 ) ) ;
#40 = ORIENTED_EDGE ( 'NONE', *, *, #32, .T. ) ;
#41 = EDGE_LOOP ( 'NONE', ( #261, #236, #233, #279 ) ) ;
#42 = EDGE_CURVE ( 'NONE', #308, #254, #258, .T. ) ;
#43 = COLOUR_RGB ( '',0.7921568627450980005, 0.8196078431372548767, 0.9333333333333333481 ) ;
#44 = EDGE_LOOP ( 'NONE', ( #84, #301 ) ) ;
#45 = ORIENTED_EDGE ( 'NONE', *, *, #216, .F. ) ;
#46 = CARTESIAN_POINT ( 'NONE',  ( 6.400000000000000355, 0.000000000000000000, 0.000000000000000000 ) ) ;
#47 = CARTESIAN_POINT ( 'NONE',  ( 0.000000000000000000, 0.000000000000000000, 2.850000000000000089 ) ) ;
#48 = FACE_OUTER_BOUND ( 'NONE', #44, .T. ) ;
#49 = DIRECTION ( 'NONE',  ( 0.000000000000000000, 0.000000000000000000, -1.000000000000000000 ) ) ;
#50 = VECTOR ( 'NONE', #160, 1000.000000000000114 ) ;
#51 =( GEOMETRIC_REPRESENTATION_CONTEXT ( 3 ) GLOBAL_UNCERTAINTY_ASSIGNED_CONTEXT ( ( #91 ) ) GLOBAL_UNIT_ASSIGNED_CONTEXT ( ( #232, #284, #226 ) ) REPRESENTATION_CONTEXT ( 'NONE', 'WORKASPACE' ) );
#52 = DIRECTION ( 'NONE',  ( 1.000000000000000000, 0.000000000000000000, 0.000000000000000000 ) ) ;
#53 = CARTESIAN_POINT ( 'NONE',  ( 6.400000000000000355, 0.000000000000000000, 0.000000000000000000 ) ) ;
#54 = ADVANCED_FACE ( 'NONE', ( #194 ), #127, .T. ) ;
#55 = CYLINDRICAL_SURFACE ( 'NONE', #11, 2.649999999999999911 ) ;
#56 = ORIENTED_EDGE ( 'NONE', *, *, #116, .F. ) ;
#57 = VECTOR ( 'NONE', #114, 1000.000000000000000 ) ;
#58 = DIRECTION ( 'NONE',  ( 0.000000000000000000, 0.000000000000000000, 1.000000000000000000 ) ) ;
#59 = FACE_OUTER_BOUND ( 'NONE', #153, .T. ) ;
#60 = ORIENTED_EDGE ( 'NONE', *, *, #290, .F. ) ;
#61 = EDGE_CURVE ( 'NONE', #82, #308, #328, .T. ) ;
#62 = CIRCLE ( 'NONE', #111, 4.000000000000000000 ) ;
#63 = ORIENTED_EDGE ( 'NONE', *, *, #206, .F. ) ;
#64 = EDGE_LOOP ( 'NONE', ( #196, #259, #250, #63 ) ) ;
#65 = PRODUCT_RELATED_PRODUCT_CATEGORY ( 'part', '', ( #242 ) ) ;
#66 = APPLICATION_CONTEXT ( 'automotive_design' ) ;
#67 = VERTEX_POINT ( 'NONE', #210 ) ;
#68 = CARTESIAN_POINT ( 'NONE',  ( 0.000000000000000000, 0.000000000000000000, 0.000000000000000000 ) ) ;
#69 = EDGE_LOOP ( 'NONE', ( #8, #298, #97, #45 ) ) ;
#70 = CIRCLE ( 'NONE', #191, 2.649999999999999911 ) ;
#71 = CARTESIAN_POINT ( 'NONE',  ( 0.000000000000000000, 0.000000000000000000, 0.000000000000000000 ) ) ;
#72 = EDGE_CURVE ( 'NONE', #37, #5, #195, .T. ) ;
#73 = FILL_AREA_STYLE_COLOUR ( '', #43 ) ;
#74 = PRESENTATION_STYLE_ASSIGNMENT (( #104 ) ) ;
#75 = VECTOR ( 'NONE', #10, 1000.000000000000000 ) ;
#76 = AXIS2_PLACEMENT_3D ( 'NONE', #240, #348, #108 ) ;
#77 = ADVANCED_FACE ( 'NONE', ( #345 ), #266, .F. ) ;
#78 = DIRECTION ( 'NONE',  ( 0.000000000000000000, 0.000000000000000000, -1.000000000000000000 ) ) ;
#79 = CARTESIAN_POINT ( 'NONE',  ( 6.200000000000002842, 0.000000000000000000, 0.000000000000000000 ) ) ;
#80 = EDGE_CURVE ( 'NONE', #5, #37, #3, .T. ) ;
#81 = DIRECTION ( 'NONE',  ( 0.7071067811865452413, 0.000000000000000000, -0.7071067811865497932 ) ) ;
#82 = VERTEX_POINT ( 'NONE', #239 ) ;
#83 = DIRECTION ( 'NONE',  ( 0.000000000000000000, 0.000000000000000000, -1.000000000000000000 ) ) ;
#84 = ORIENTED_EDGE ( 'NONE', *, *, #80, .T. ) ;
#85 = DIRECTION ( 'NONE',  ( -1.000000000000000000, 0.000000000000000000, 0.000000000000000000 ) ) ;
#86 = MECHANICAL_DESIGN_GEOMETRIC_PRESENTATION_REPRESENTATION (  '', ( #223 ), #133 ) ;
#87 = CARTESIAN_POINT ( 'NONE',  ( 0.000000000000000000, 0.000000000000000000, 0.000000000000000000 ) ) ;
#88 = ORIENTED_EDGE ( 'NONE', *, *, #116, .T. ) ;
#89 = EDGE_CURVE ( 'NONE', #305, #174, #190, .T. ) ;
#90 = DIRECTION ( 'NONE',  ( 0.000000000000000000, 0.000000000000000000, -1.000000000000000000 ) ) ;
#91 = UNCERTAINTY_MEASURE_WITH_UNIT (LENGTH_MEASURE( 1.000000000000000082E-05 ), #232, 'distance_accuracy_value', 'NONE');
#92 = PLANE ( 'NONE',  #276 ) ;
#93 = DIRECTION ( 'NONE',  ( 0.7071067811865452413, 8.659560562354961208E-17, 0.7071067811865497932 ) ) ;
#94 = PRESENTATION_LAYER_ASSIGNMENT (  '', '', ( #223 ) ) ;
#95 = EDGE_CURVE ( 'NONE', #338, #282, #62, .T. ) ;
#96 = FACE_OUTER_BOUND ( 'NONE', #222, .T. ) ;
#97 = ORIENTED_EDGE ( 'NONE', *, *, #95, .T. ) ;
#98 = CARTESIAN_POINT ( 'NONE',  ( 6.400000000000000355, 0.000000000000000000, 3.900000000000000799 ) ) ;
#99 = ORIENTED_EDGE ( 'NONE', *, *, #137, .T. ) ;
#100 = APPLICATION_PROTOCOL_DEFINITION ( 'draft international standard', 'automotive_design', 1998, #66 ) ;
#101 = ORIENTED_EDGE ( 'NONE', *, *, #216, .T. ) ;
#102 = AXIS2_PLACEMENT_3D ( 'NONE', #38, #185, #138 ) ;
#103 = DIRECTION ( 'NONE',  ( 0.000000000000000000, 0.000000000000000000, 1.000000000000000000 ) ) ;
#104 = SURFACE_STYLE_USAGE ( .BOTH. , #238 ) ;
#105 = CARTESIAN_POINT ( 'NONE',  ( 0.000000000000000000, 3.490243377569956554E-16, -2.850000000000000089 ) ) ;
#106 = CARTESIAN_POINT ( 'NONE',  ( 0.000000000000000000, 0.000000000000000000, 0.000000000000000000 ) ) ;
#107 = PLANE ( 'NONE',  #76 ) ;
#108 = DIRECTION ( 'NONE',  ( 0.000000000000000000, 0.000000000000000000, -1.000000000000000000 ) ) ;
#109 = MANIFOLD_SOLID_BREP ( '\X2\042404300441043a0430\X0\2', #309 ) ;
#110 = DIRECTION ( 'NONE',  ( -1.000000000000000000, -0.000000000000000000, -0.000000000000000000 ) ) ;
#111 = AXIS2_PLACEMENT_3D ( 'NONE', #71, #29, #323 ) ;
#112 = AXIS2_PLACEMENT_3D ( 'NONE', #87, #115, #145 ) ;
#113 = DIRECTION ( 'NONE',  ( 0.000000000000000000, 0.000000000000000000, 1.000000000000000000 ) ) ;
#114 = DIRECTION ( 'NONE',  ( -1.000000000000000000, -0.000000000000000000, -0.000000000000000000 ) ) ;
#115 = DIRECTION ( 'NONE',  ( -1.000000000000000000, -0.000000000000000000, -0.000000000000000000 ) ) ;
#116 = EDGE_CURVE ( 'NONE', #151, #305, #20, .T. ) ;
#117 = VECTOR ( 'NONE', #234, 1000.000000000000000 ) ;
#118 = CARTESIAN_POINT ( 'NONE',  ( 6.400000000000000355, 0.000000000000000000, 0.000000000000000000 ) ) ;
#119 = ORIENTED_EDGE ( 'NONE', *, *, #247, .F. ) ;
#120 = EDGE_LOOP ( 'NONE', ( #172, #14 ) ) ;
#121 = AXIS2_PLACEMENT_3D ( 'NONE', #329, #85, #58 ) ;
#122 = DIRECTION ( 'NONE',  ( 1.000000000000000000, 0.000000000000000000, 0.000000000000000000 ) ) ;
#123 = ORIENTED_EDGE ( 'NONE', *, *, #42, .T. ) ;
#124 = FACE_OUTER_BOUND ( 'NONE', #64, .T. ) ;
#125 = CARTESIAN_POINT ( 'NONE',  ( 6.400000000000000355, 0.000000000000000000, 0.000000000000000000 ) ) ;
#126 = EDGE_CURVE ( 'NONE', #142, #174, #156, .T. ) ;
#127 = CYLINDRICAL_SURFACE ( 'NONE', #333, 4.000000000000000000 ) ;
#128 = AXIS2_PLACEMENT_3D ( 'NONE', #311, #122, #200 ) ;
#129 = CARTESIAN_POINT ( 'NONE',  ( 6.400000000000000355, 0.000000000000000000, 0.000000000000000000 ) ) ;
#130 = ADVANCED_FACE ( 'NONE', ( #244 ), #249, .F. ) ;
#131 = DIRECTION ( 'NONE',  ( 1.000000000000000000, 0.000000000000000000, 0.000000000000000000 ) ) ;
#132 = DIRECTION ( 'NONE',  ( 0.000000000000000000, 0.000000000000000000, 1.000000000000000000 ) ) ;
#133 =( GEOMETRIC_REPRESENTATION_CONTEXT ( 3 ) GLOBAL_UNCERTAINTY_ASSIGNED_CONTEXT ( ( #162 ) ) GLOBAL_UNIT_ASSIGNED_CONTEXT ( ( #211, #24, #267 ) ) REPRESENTATION_CONTEXT ( 'NONE', 'WORKASPACE' ) );
#134 = CIRCLE ( 'NONE', #230, 2.649999999999999911 ) ;
#135 = CARTESIAN_POINT ( 'NONE',  ( 6.400000000000000355, 0.000000000000000000, 0.000000000000000000 ) ) ;
#136 = CARTESIAN_POINT ( 'NONE',  ( 6.200000000000002842, 0.000000000000000000, 2.649999999999999911 ) ) ;
#137 = EDGE_CURVE ( 'NONE', #37, #340, #265, .T. ) ;
#138 = DIRECTION ( 'NONE',  ( 0.000000000000000000, 0.000000000000000000, -1.000000000000000000 ) ) ;
#139 = ORIENTED_EDGE ( 'NONE', *, *, #283, .F. ) ;
#140 = AXIS2_PLACEMENT_3D ( 'NONE', #334, #52, #36 ) ;
#141 = DIRECTION ( 'NONE',  ( 0.000000000000000000, 0.000000000000000000, 1.000000000000000000 ) ) ;
#142 = VERTEX_POINT ( 'NONE', #1 ) ;
#143 = ADVANCED_FACE ( 'NONE', ( #157, #48 ), #107, .T. ) ;
#144 = DIRECTION ( 'NONE',  ( 0.000000000000000000, 0.000000000000000000, -1.000000000000000000 ) ) ;
#145 = DIRECTION ( 'NONE',  ( 0.000000000000000000, 0.000000000000000000, 1.000000000000000000 ) ) ;
#146 = VECTOR ( 'NONE', #325, 1000.000000000000000 ) ;
#147 = FACE_OUTER_BOUND ( 'NONE', #312, .T. ) ;
#148 = CARTESIAN_POINT ( 'NONE',  ( 6.400000000000000355, 4.837354856632045057E-16, -3.900000000000000799 ) ) ;
#149 = EDGE_CURVE ( 'NONE', #282, #338, #292, .T. ) ;
#150 = EDGE_LOOP ( 'NONE', ( #154, #287 ) ) ;
#151 = VERTEX_POINT ( 'NONE', #189 ) ;
#152 = DIRECTION ( 'NONE',  ( 0.000000000000000000, 0.000000000000000000, 1.000000000000000000 ) ) ;
#153 = EDGE_LOOP ( 'NONE', ( #56, #119, #335, #324 ) ) ;
#154 = ORIENTED_EDGE ( 'NONE', *, *, #164, .T. ) ;
#155 = PRODUCT_DEFINITION_SHAPE ( 'NONE', 'NONE',  #302 ) ;
#156 = LINE ( 'NONE', #47, #50 ) ;
#157 = FACE_BOUND ( 'NONE', #120, .T. ) ;
#158 = ADVANCED_BREP_SHAPE_REPRESENTATION ( 'A126 \X2\041204420443043b043a0430\X0\ \X2\04340438044104420430043d04460438043e043d043d0430044f\X0\ 5\X2\0445\X0\1 4', ( #109, #209 ), #51 ) ;
#159 = EDGE_CURVE ( 'NONE', #67, #254, #208, .T. ) ;
#160 = DIRECTION ( 'NONE',  ( -0.7071067811865499042, 0.000000000000000000, 0.7071067811865452413 ) ) ;
#161 = DIRECTION ( 'NONE',  ( -1.000000000000000000, -0.000000000000000000, -0.000000000000000000 ) ) ;
#162 = UNCERTAINTY_MEASURE_WITH_UNIT (LENGTH_MEASURE( 1.000000000000000082E-05 ), #211, 'distance_accuracy_value', 'NONE');
#163 = CIRCLE ( 'NONE', #16, 4.000000000000000000 ) ;
#164 = EDGE_CURVE ( 'NONE', #174, #305, #344, .T. ) ;
#165 = LINE ( 'NONE', #169, #57 ) ;
#166 = LINE ( 'NONE', #2, #168 ) ;
#167 = DIRECTION ( 'NONE',  ( -1.000000000000000000, 0.000000000000000000, 0.000000000000000000 ) ) ;
#168 = VECTOR ( 'NONE', #330, 1000.000000000000000 ) ;
#169 = CARTESIAN_POINT ( 'NONE',  ( 6.400000000000000355, 3.245314017740485962E-16, -2.649999999999999911 ) ) ;
#170 = DIRECTION ( 'NONE',  ( 0.000000000000000000, 0.000000000000000000, -1.000000000000000000 ) ) ;
#171 = PRODUCT_DEFINITION_CONTEXT ( 'detailed design', #202, 'design' ) ;
#172 = ORIENTED_EDGE ( 'NONE', *, *, #159, .T. ) ;
#173 = EDGE_LOOP ( 'NONE', ( #188, #40, #101, #25 ) ) ;
#174 = VERTEX_POINT ( 'NONE', #4 ) ;
#175 = ORIENTED_EDGE ( 'NONE', *, *, #95, .F. ) ;
#176 = AXIS2_PLACEMENT_3D ( 'NONE', #178, #293, #78 ) ;
#177 = EDGE_LOOP ( 'NONE', ( #13, #264, #218, #341 ) ) ;
#178 = CARTESIAN_POINT ( 'NONE',  ( 0.000000000000000000, 0.000000000000000000, 0.000000000000000000 ) ) ;
#179 = EDGE_CURVE ( 'NONE', #82, #67, #6, .T. ) ;
#180 = AXIS2_PLACEMENT_3D ( 'NONE', #205, #320, #39 ) ;
#181 = DIRECTION ( 'NONE',  ( -1.000000000000000000, -0.000000000000000000, -0.000000000000000000 ) ) ;
#182 = DIRECTION ( 'NONE',  ( 1.000000000000000000, 0.000000000000000000, 0.000000000000000000 ) ) ;
#183 = ADVANCED_FACE ( 'NONE', ( #221 ), #33, .T. ) ;
#184 = DIRECTION ( 'NONE',  ( 0.000000000000000000, 0.000000000000000000, -1.000000000000000000 ) ) ;
#185 = DIRECTION ( 'NONE',  ( -1.000000000000000000, -0.000000000000000000, -0.000000000000000000 ) ) ;
#186 = ORIENTED_EDGE ( 'NONE', *, *, #159, .F. ) ;
#187 = CARTESIAN_POINT ( 'NONE',  ( 6.300000000000002487, 0.000000000000000000, 4.000000000000000000 ) ) ;
#188 = ORIENTED_EDGE ( 'NONE', *, *, #243, .F. ) ;
#189 = CARTESIAN_POINT ( 'NONE',  ( 0.2000000000000013989, 3.245314017740485962E-16, -2.649999999999999911 ) ) ;
#190 = CIRCLE ( 'NONE', #176, 2.850000000000000089 ) ;
#191 = AXIS2_PLACEMENT_3D ( 'NONE', #248, #192, #326 ) ;
#192 = DIRECTION ( 'NONE',  ( -1.000000000000000000, -0.000000000000000000, -0.000000000000000000 ) ) ;
#193 = CARTESIAN_POINT ( 'NONE',  ( 0.000000000000000000, 4.898587196589412829E-16, -4.000000000000000000 ) ) ;
#194 = FACE_OUTER_BOUND ( 'NONE', #173, .T. ) ;
#195 = CIRCLE ( 'NONE', #203, 3.900000000000000799 ) ;
#196 = ORIENTED_EDGE ( 'NONE', *, *, #283, .T. ) ;
#197 = DIRECTION ( 'NONE',  ( 1.000000000000000000, 0.000000000000000000, 0.000000000000000000 ) ) ;
#198 = EDGE_LOOP ( 'NONE', ( #332, #99, #60, #235 ) ) ;
#199 = ADVANCED_FACE ( 'NONE', ( #331 ), #280, .T. ) ;
#200 = DIRECTION ( 'NONE',  ( 0.000000000000000000, 0.000000000000000000, -1.000000000000000000 ) ) ;
#201 = ORIENTED_EDGE ( 'NONE', *, *, #42, .F. ) ;
#202 = APPLICATION_CONTEXT ( 'automotive_design' ) ;
#203 = AXIS2_PLACEMENT_3D ( 'NONE', #135, #131, #271 ) ;
#204 = CONICAL_SURFACE ( 'NONE', #128, 2.649999999999999911, 0.7853981633974514986 ) ;
#205 = CARTESIAN_POINT ( 'NONE',  ( 6.300000000000002487, 0.000000000000000000, 0.000000000000000000 ) ) ;
#206 = EDGE_CURVE ( 'NONE', #308, #142, #300, .T. ) ;
#207 = DIRECTION ( 'NONE',  ( 1.000000000000000000, 0.000000000000000000, 0.000000000000000000 ) ) ;
#208 = CIRCLE ( 'NONE', #102, 2.849999999999998312 ) ;
#209 = AXIS2_PLACEMENT_3D ( 'NONE', #68, #152, #17 ) ;
#210 = CARTESIAN_POINT ( 'NONE',  ( 6.400000000000000355, 0.000000000000000000, -2.849999999999998312 ) ) ;
#211 =( LENGTH_UNIT ( ) NAMED_UNIT ( * ) SI_UNIT ( .MILLI., .METRE. ) );
#212 = DIRECTION ( 'NONE',  ( 0.000000000000000000, 0.000000000000000000, -1.000000000000000000 ) ) ;
#213 = FACE_OUTER_BOUND ( 'NONE', #41, .T. ) ;
#214 = AXIS2_PLACEMENT_3D ( 'NONE', #268, #182, #212 ) ;
#215 = AXIS2_PLACEMENT_3D ( 'NONE', #118, #110, #113 ) ;
#216 = EDGE_CURVE ( 'NONE', #314, #282, #166, .T. ) ;
#217 = DIRECTION ( 'NONE',  ( 1.000000000000000000, 0.000000000000000000, 0.000000000000000000 ) ) ;
#218 = ORIENTED_EDGE ( 'NONE', *, *, #327, .T. ) ;
#219 = DIRECTION ( 'NONE',  ( 0.000000000000000000, 0.000000000000000000, 1.000000000000000000 ) ) ;
#220 = ORIENTED_EDGE ( 'NONE', *, *, #342, .F. ) ;
#221 = FACE_OUTER_BOUND ( 'NONE', #198, .T. ) ;
#222 = EDGE_LOOP ( 'NONE', ( #201, #304, #15, #220 ) ) ;
#223 = STYLED_ITEM ( 'NONE', ( #74 ), #109 ) ;
#224 = CARTESIAN_POINT ( 'NONE',  ( 0.000000000000000000, 0.000000000000000000, 0.000000000000000000 ) ) ;
#225 = EDGE_CURVE ( 'NONE', #82, #151, #165, .T. ) ;
#226 =( NAMED_UNIT ( * ) SI_UNIT ( $, .STERADIAN. ) SOLID_ANGLE_UNIT ( ) );
#227 = CARTESIAN_POINT ( 'NONE',  ( 6.200000000000002842, 3.245314017740485962E-16, 2.649999999999999911 ) ) ;
#228 = ORIENTED_EDGE ( 'NONE', *, *, #149, .F. ) ;
#229 = AXIS2_PLACEMENT_3D ( 'NONE', #53, #299, #141 ) ;
#230 = AXIS2_PLACEMENT_3D ( 'NONE', #30, #273, #144 ) ;
#231 = ADVANCED_FACE ( 'NONE', ( #59 ), #281, .F. ) ;
#232 =( LENGTH_UNIT ( ) NAMED_UNIT ( * ) SI_UNIT ( .MILLI., .METRE. ) );
#233 = ORIENTED_EDGE ( 'NONE', *, *, #206, .T. ) ;
#234 = DIRECTION ( 'NONE',  ( -0.7071067811865414665, 0.000000000000000000, 0.7071067811865536790 ) ) ;
#235 = ORIENTED_EDGE ( 'NONE', *, *, #327, .F. ) ;
#236 = ORIENTED_EDGE ( 'NONE', *, *, #61, .T. ) ;
#237 = VECTOR ( 'NONE', #81, 1000.000000000000000 ) ;
#238 = SURFACE_SIDE_STYLE ('',( #26 ) ) ;
#239 = CARTESIAN_POINT ( 'NONE',  ( 6.200000000000002842, 3.245314017740485962E-16, -2.649999999999999911 ) ) ;
#240 = CARTESIAN_POINT ( 'NONE',  ( 6.400000000000000355, 0.000000000000000000, 0.000000000000000000 ) ) ;
#241 = CIRCLE ( 'NONE', #180, 4.000000000000000000 ) ;
#242 = PRODUCT ( 'A126 \X2\041204420443043b043a0430\X0\ \X2\04340438044104420430043d04460438043e043d043d0430044f\X0\ 5\X2\0445\X0\1 4', 'A126 \X2\041204420443043b043a0430\X0\ \X2\04340438044104420430043d04460438043e043d043d0430044f\X0\ 5\X2\0445\X0\1 4', '', ( #263 ) ) ;
#243 = EDGE_CURVE ( 'NONE', #340, #338, #35, .T. ) ;
#244 = FACE_OUTER_BOUND ( 'NONE', #252, .T. ) ;
#245 = CARTESIAN_POINT ( 'NONE',  ( 6.400000000000000355, 4.776122516674678272E-16, -3.900000000000000799 ) ) ;
#246 = CARTESIAN_POINT ( 'NONE',  ( 6.400000000000000355, 0.000000000000000000, 2.649999999999999911 ) ) ;
#247 = EDGE_CURVE ( 'NONE', #142, #151, #134, .T. ) ;
#248 = CARTESIAN_POINT ( 'NONE',  ( 0.2000000000000013989, 0.000000000000000000, 0.000000000000000000 ) ) ;
#249 = CONICAL_SURFACE ( 'NONE', #256, 2.649999999999999911, 0.7853981633974514986 ) ;
#250 = ORIENTED_EDGE ( 'NONE', *, *, #260, .T. ) ;
#251 = DIRECTION ( 'NONE',  ( -1.000000000000000000, -0.000000000000000000, -0.000000000000000000 ) ) ;
#252 = EDGE_LOOP ( 'NONE', ( #139, #123, #186, #262 ) ) ;
#253 = CARTESIAN_POINT ( 'NONE',  ( 6.400000000000000355, 3.490243377569954582E-16, 2.849999999999998312 ) ) ;
#254 = VERTEX_POINT ( 'NONE', #253 ) ;
#255 = CARTESIAN_POINT ( 'NONE',  ( 0.000000000000000000, 0.000000000000000000, 4.000000000000000000 ) ) ;
#256 = AXIS2_PLACEMENT_3D ( 'NONE', #295, #207, #49 ) ;
#257 = CARTESIAN_POINT ( 'NONE',  ( 6.300000000000002487, 4.898587196589412829E-16, -4.000000000000000000 ) ) ;
#258 = LINE ( 'NONE', #227, #349 ) ;
#259 = ORIENTED_EDGE ( 'NONE', *, *, #225, .T. ) ;
#260 = EDGE_CURVE ( 'NONE', #151, #142, #70, .T. ) ;
#261 = ORIENTED_EDGE ( 'NONE', *, *, #225, .F. ) ;
#262 = ORIENTED_EDGE ( 'NONE', *, *, #179, .F. ) ;
#263 = PRODUCT_CONTEXT ( 'NONE', #66, 'mechanical' ) ;
#264 = ORIENTED_EDGE ( 'NONE', *, *, #80, .F. ) ;
#265 = LINE ( 'NONE', #245, #146 ) ;
#266 = CONICAL_SURFACE ( 'NONE', #27, 2.850000000000000089, 0.7853981633974450594 ) ;
#267 =( NAMED_UNIT ( * ) SI_UNIT ( $, .STERADIAN. ) SOLID_ANGLE_UNIT ( ) );
#268 = CARTESIAN_POINT ( 'NONE',  ( 6.200000000000002842, 0.000000000000000000, 0.000000000000000000 ) ) ;
#269 = FILL_AREA_STYLE ('',( #73 ) ) ;
#270 = CIRCLE ( 'NONE', #318, 2.649999999999999911 ) ;
#271 = DIRECTION ( 'NONE',  ( 0.000000000000000000, 0.000000000000000000, -1.000000000000000000 ) ) ;
#272 = CARTESIAN_POINT ( 'NONE',  ( 6.400000000000000355, 4.898587196589412829E-16, -4.000000000000000000 ) ) ;
#273 = DIRECTION ( 'NONE',  ( -1.000000000000000000, -0.000000000000000000, -0.000000000000000000 ) ) ;
#274 = AXIS2_PLACEMENT_3D ( 'NONE', #106, #217, #83 ) ;
#275 = CARTESIAN_POINT ( 'NONE',  ( 6.400000000000000355, 0.000000000000000000, 0.000000000000000000 ) ) ;
#276 = AXIS2_PLACEMENT_3D ( 'NONE', #224, #197, #90 ) ;
#277 = DIRECTION ( 'NONE',  ( -1.000000000000000000, -0.000000000000000000, -0.000000000000000000 ) ) ;
#278 = CARTESIAN_POINT ( 'NONE',  ( 0.000000000000000000, 3.490243377569956554E-16, -2.850000000000000089 ) ) ;
#279 = ORIENTED_EDGE ( 'NONE', *, *, #247, .T. ) ;
#280 = CONICAL_SURFACE ( 'NONE', #121, 3.900000000000000799, 0.7853981633974570498 ) ;
#281 = CONICAL_SURFACE ( 'NONE', #112, 2.850000000000000089, 0.7853981633974450594 ) ;
#282 = VERTEX_POINT ( 'NONE', #255 ) ;
#283 = EDGE_CURVE ( 'NONE', #308, #82, #270, .T. ) ;
#284 =( NAMED_UNIT ( * ) PLANE_ANGLE_UNIT ( ) SI_UNIT ( $, .RADIAN. ) );
#285 = EDGE_LOOP ( 'NONE', ( #289, #88, #316, #336 ) ) ;
#286 = SHAPE_DEFINITION_REPRESENTATION ( #155, #158 ) ;
#287 = ORIENTED_EDGE ( 'NONE', *, *, #89, .T. ) ;
#288 = LINE ( 'NONE', #98, #117 ) ;
#289 = ORIENTED_EDGE ( 'NONE', *, *, #260, .F. ) ;
#290 = EDGE_CURVE ( 'NONE', #314, #340, #163, .T. ) ;
#291 = DIRECTION ( 'NONE',  ( 0.000000000000000000, 0.000000000000000000, 1.000000000000000000 ) ) ;
#292 = CIRCLE ( 'NONE', #274, 4.000000000000000000 ) ;
#293 = DIRECTION ( 'NONE',  ( 1.000000000000000000, 0.000000000000000000, 0.000000000000000000 ) ) ;
#294 = DIRECTION ( 'NONE',  ( 1.000000000000000000, 0.000000000000000000, 0.000000000000000000 ) ) ;
#295 = CARTESIAN_POINT ( 'NONE',  ( 6.200000000000002842, 0.000000000000000000, 0.000000000000000000 ) ) ;
#296 = FACE_OUTER_BOUND ( 'NONE', #69, .T. ) ;
#297 = CARTESIAN_POINT ( 'NONE',  ( 6.200000000000002842, 0.000000000000000000, -2.649999999999999911 ) ) ;
#298 = ORIENTED_EDGE ( 'NONE', *, *, #243, .T. ) ;
#299 = DIRECTION ( 'NONE',  ( -1.000000000000000000, 0.000000000000000000, 0.000000000000000000 ) ) ;
#300 = LINE ( 'NONE', #246, #75 ) ;
#301 = ORIENTED_EDGE ( 'NONE', *, *, #72, .T. ) ;
#302 = PRODUCT_DEFINITION ( 'UNKNOWN', '', #310, #171 ) ;
#303 = CARTESIAN_POINT ( 'NONE',  ( 6.300000000000002487, 0.000000000000000000, 0.000000000000000000 ) ) ;
#304 = ORIENTED_EDGE ( 'NONE', *, *, #61, .F. ) ;
#305 = VERTEX_POINT ( 'NONE', #278 ) ;
#306 = ADVANCED_FACE ( 'NONE', ( #296 ), #31, .T. ) ;
#307 = APPLICATION_PROTOCOL_DEFINITION ( 'draft international standard', 'automotive_design', 1998, #202 ) ;
#308 = VERTEX_POINT ( 'NONE', #136 ) ;
#309 = CLOSED_SHELL ( 'NONE', ( #77, #130, #183, #28, #306, #143, #322, #54, #319, #199, #346, #231 ) ) ;
#310 = PRODUCT_DEFINITION_FORMATION_WITH_SPECIFIED_SOURCE ( 'ANY', '', #242, .NOT_KNOWN. ) ;
#311 = CARTESIAN_POINT ( 'NONE',  ( 6.200000000000002842, 0.000000000000000000, 0.000000000000000000 ) ) ;
#312 = EDGE_LOOP ( 'NONE', ( #228, #175 ) ) ;
#313 = DIRECTION ( 'NONE',  ( -1.000000000000000000, -0.000000000000000000, -0.000000000000000000 ) ) ;
#314 = VERTEX_POINT ( 'NONE', #187 ) ;
#315 = DIRECTION ( 'NONE',  ( 0.000000000000000000, 0.000000000000000000, -1.000000000000000000 ) ) ;
#316 = ORIENTED_EDGE ( 'NONE', *, *, #164, .F. ) ;
#317 = AXIS2_PLACEMENT_3D ( 'NONE', #125, #343, #103 ) ;
#318 = AXIS2_PLACEMENT_3D ( 'NONE', #79, #7, #184 ) ;
#319 = ADVANCED_FACE ( 'NONE', ( #213 ), #55, .F. ) ;
#320 = DIRECTION ( 'NONE',  ( -1.000000000000000000, 0.000000000000000000, 0.000000000000000000 ) ) ;
#321 = CARTESIAN_POINT ( 'NONE',  ( 0.000000000000000000, 0.000000000000000000, 0.000000000000000000 ) ) ;
#322 = ADVANCED_FACE ( 'NONE', ( #337, #147 ), #92, .F. ) ;
#323 = DIRECTION ( 'NONE',  ( 0.000000000000000000, 0.000000000000000000, -1.000000000000000000 ) ) ;
#324 = ORIENTED_EDGE ( 'NONE', *, *, #89, .F. ) ;
#325 = DIRECTION ( 'NONE',  ( -0.7071067811865414665, 8.659560562355008046E-17, -0.7071067811865536790 ) ) ;
#326 = DIRECTION ( 'NONE',  ( 0.000000000000000000, 0.000000000000000000, -1.000000000000000000 ) ) ;
#327 = EDGE_CURVE ( 'NONE', #5, #314, #288, .T. ) ;
#328 = CIRCLE ( 'NONE', #214, 2.649999999999999911 ) ;
#329 = CARTESIAN_POINT ( 'NONE',  ( 6.400000000000000355, 0.000000000000000000, 0.000000000000000000 ) ) ;
#330 = DIRECTION ( 'NONE',  ( -1.000000000000000000, -0.000000000000000000, -0.000000000000000000 ) ) ;
#331 = FACE_OUTER_BOUND ( 'NONE', #177, .T. ) ;
#332 = ORIENTED_EDGE ( 'NONE', *, *, #72, .F. ) ;
#333 = AXIS2_PLACEMENT_3D ( 'NONE', #129, #161, #132 ) ;
#334 = CARTESIAN_POINT ( 'NONE',  ( 0.000000000000000000, 0.000000000000000000, 0.000000000000000000 ) ) ;
#335 = ORIENTED_EDGE ( 'NONE', *, *, #126, .T. ) ;
#336 = ORIENTED_EDGE ( 'NONE', *, *, #126, .F. ) ;
#337 = FACE_BOUND ( 'NONE', #150, .T. ) ;
#338 = VERTEX_POINT ( 'NONE', #193 ) ;
#339 = AXIS2_PLACEMENT_3D ( 'NONE', #12, #313, #315 ) ;
#340 = VERTEX_POINT ( 'NONE', #257 ) ;
#341 = ORIENTED_EDGE ( 'NONE', *, *, #32, .F. ) ;
#342 = EDGE_CURVE ( 'NONE', #254, #67, #22, .T. ) ;
#343 = DIRECTION ( 'NONE',  ( -1.000000000000000000, -0.000000000000000000, -0.000000000000000000 ) ) ;
#344 = CIRCLE ( 'NONE', #140, 2.850000000000000089 ) ;
#345 = FACE_OUTER_BOUND ( 'NONE', #285, .T. ) ;
#346 = ADVANCED_FACE ( 'NONE', ( #96 ), #204, .F. ) ;
#347 = DIRECTION ( 'NONE',  ( 0.000000000000000000, 0.000000000000000000, -1.000000000000000000 ) ) ;
#348 = DIRECTION ( 'NONE',  ( 1.000000000000000000, 0.000000000000000000, 0.000000000000000000 ) ) ;
#349 = VECTOR ( 'NONE', #93, 1000.000000000000000 ) ;
ENDSEC;
END-ISO-10303-21;
