ISO-10303-21;
HEADER;
FILE_DESCRIPTION (( 'STEP AP214' ),
    '1' );
FILE_NAME ('Ñáîðêà1.STEP',
    '2024-12-05T07:25:03',
    ( '' ),
    ( '' ),
    'SwSTEP 2.0',
    'SolidWorks 2024',
    '' );
FILE_SCHEMA (( 'AUTOMOTIVE_DESIGN' ));
ENDSEC;

DATA;
#1 = ORIENTED_EDGE ( 'NONE', *, *, #213, .T. ) ;
#2 = LINE ( 'NONE', #74, #176 ) ;
#3 = VECTOR ( 'NONE', #158, 1000.000000000000000 ) ;
#4 = SURFACE_SIDE_STYLE ('',( #161 ) ) ;
#5 = PLANE ( 'NONE',  #130 ) ;
#6 = APPLICATION_CONTEXT ( 'automotive_design' ) ;
#7 = AXIS2_PLACEMENT_3D ( 'NONE', #211, #173, #207 ) ;
#8 = PRODUCT_DEFINITION_CONTEXT ( 'detailed design', #131, 'design' ) ;
#9 = CARTESIAN_POINT ( 'NONE',  ( 996.7489301358025386, 1006.409766940549389, 496.8423446063967504 ) ) ;
#10 = DIRECTION ( 'NONE',  ( 0.000000000000000000, 0.000000000000000000, -1.000000000000000000 ) ) ;
#11 = CARTESIAN_POINT ( 'NONE',  ( 0.000000000000000000, 0.000000000000000000, 1000.000000000000000 ) ) ;
#12 = SHAPE_REPRESENTATION ( 'SH50S6X \X2\0410043b044e043c0438043d0438043504320430044f\X0\ \X2\043f043e043b043e04410430\X0\ \X2\04100414\X0\31\X2\0422\X0\ 50\X2\0445\X0\6 (\X2\041104350437\X0\ \X2\043f043e043a0440044b04420438044f\X0\)_50\X2\0445\X0\6', ( #113 ), #134 ) ;
#13 = ORIENTED_EDGE ( 'NONE', *, *, #32, .T. ) ;
#14 =( GEOMETRIC_REPRESENTATION_CONTEXT ( 3 ) GLOBAL_UNCERTAINTY_ASSIGNED_CONTEXT ( ( #47 ) ) GLOBAL_UNIT_ASSIGNED_CONTEXT ( ( #214, #195, #216 ) ) REPRESENTATION_CONTEXT ( 'NONE', 'WORKASPACE' ) );
#15 = VERTEX_POINT ( 'NONE', #33 ) ;
#16 = EDGE_CURVE ( 'NONE', #60, #15, #152, .T. ) ;
#17 = ORIENTED_EDGE ( 'NONE', *, *, #76, .F. ) ;
#18 = DIRECTION ( 'NONE',  ( 0.000000000000000000, 1.000000000000000000, 0.000000000000000000 ) ) ;
#19 = DIRECTION ( 'NONE',  ( -1.000000000000000000, -0.000000000000000000, -0.000000000000000000 ) ) ;
#20 = CARTESIAN_POINT ( 'NONE',  ( -25.00000000000000000, 3.000000000000000000, 1000.000000000000000 ) ) ;
#21 = PRESENTATION_STYLE_ASSIGNMENT (( #128 ) ) ;
#22 = EDGE_CURVE ( 'NONE', #132, #82, #135, .T. ) ;
#23 = LINE ( 'NONE', #107, #187 ) ;
#24 = VECTOR ( 'NONE', #85, 1000.000000000000000 ) ;
#25 = SHAPE_DEFINITION_REPRESENTATION ( #190, #103 ) ;
#26 = DIRECTION ( 'NONE',  ( 1.000000000000000000, 0.000000000000000000, 0.000000000000000000 ) ) ;
#27 = DIRECTION ( 'NONE',  ( 1.000000000000000000, 0.000000000000000000, 0.000000000000000000 ) ) ;
#28 = MECHANICAL_DESIGN_GEOMETRIC_PRESENTATION_REPRESENTATION (  '', ( #215 ), #49 ) ;
#29 = VERTEX_POINT ( 'NONE', #30 ) ;
#30 = CARTESIAN_POINT ( 'NONE',  ( 25.00000000000000000, 3.000000000000000000, 0.000000000000000000 ) ) ;
#31 = ADVANCED_BREP_SHAPE_REPRESENTATION ( '', ( #148, #113 ), #134 ) ;
#32 = EDGE_CURVE ( 'NONE', #29, #127, #221, .T. ) ;
#33 = CARTESIAN_POINT ( 'NONE',  ( 25.00000000000000000, -3.000000000000000000, 0.000000000000000000 ) ) ;
#34 = AXIS2_PLACEMENT_3D ( 'NONE', #199, #181, #65 ) ;
#35 = PRODUCT_DEFINITION_SHAPE ( 'NONE', 'NONE',  #224 ) ;
#36 = ADVANCED_FACE ( 'NONE', ( #104 ), #40, .F. ) ;
#37 = PRODUCT ( '\X2\04210431043e0440043a0430\X0\1', '\X2\04210431043e0440043a0430\X0\1', '', ( #110 ) ) ;
#38 = AXIS2_PLACEMENT_3D ( 'NONE', #196, #97, #180 ) ;
#39 = CARTESIAN_POINT ( 'NONE',  ( -25.00000000000000000, -3.000000000000000000, 1000.000000000000000 ) ) ;
#40 = PLANE ( 'NONE',  #223 ) ;
#41 = DIRECTION ( 'NONE',  ( -1.000000000000000000, 0.000000000000000000, 0.000000000000000000 ) ) ;
#42 = LINE ( 'NONE', #140, #120 ) ;
#43 = CARTESIAN_POINT ( 'NONE',  ( 25.00000000000000000, 3.000000000000000000, 1000.000000000000000 ) ) ;
#44 = CARTESIAN_POINT ( 'NONE',  ( 25.00000000000000000, 3.000000000000000000, 1000.000000000000000 ) ) ;
#45 = ORIENTED_EDGE ( 'NONE', *, *, #22, .F. ) ;
#46 = FACE_OUTER_BOUND ( 'NONE', #50, .T. ) ;
#47 = UNCERTAINTY_MEASURE_WITH_UNIT (LENGTH_MEASURE( 1.000000000000000082E-05 ), #214, 'distance_accuracy_value', 'NONE');
#48 = FACE_OUTER_BOUND ( 'NONE', #99, .T. ) ;
#49 =( GEOMETRIC_REPRESENTATION_CONTEXT ( 3 ) GLOBAL_UNCERTAINTY_ASSIGNED_CONTEXT ( ( #129 ) ) GLOBAL_UNIT_ASSIGNED_CONTEXT ( ( #126, #87, #144 ) ) REPRESENTATION_CONTEXT ( 'NONE', 'WORKASPACE' ) );
#50 = EDGE_LOOP ( 'NONE', ( #1, #155, #45, #94 ) ) ;
#51 = PRODUCT_RELATED_PRODUCT_CATEGORY ( 'part', '', ( #185 ) ) ;
#52 = CARTESIAN_POINT ( 'NONE',  ( 0.000000000000000000, 0.000000000000000000, 0.000000000000000000 ) ) ;
#53 = ORIENTED_EDGE ( 'NONE', *, *, #204, .T. ) ;
#54 = ADVANCED_FACE ( 'NONE', ( #48 ), #201, .T. ) ;
#55 = DIRECTION ( 'NONE',  ( 1.000000000000000000, 0.000000000000000000, 0.000000000000000000 ) ) ;
#56 = CARTESIAN_POINT ( 'NONE',  ( -25.00000000000000000, -3.000000000000000000, 1000.000000000000000 ) ) ;
#57 = PRODUCT_DEFINITION_FORMATION_WITH_SPECIFIED_SOURCE ( 'ANY', '', #37, .NOT_KNOWN. ) ;
#58 = ADVANCED_FACE ( 'NONE', ( #184 ), #59, .F. ) ;
#59 = PLANE ( 'NONE',  #124 ) ;
#60 = VERTEX_POINT ( 'NONE', #77 ) ;
#61 = DIRECTION ( 'NONE',  ( 0.000000000000000000, 1.000000000000000000, 0.000000000000000000 ) ) ;
#62 = VERTEX_POINT ( 'NONE', #172 ) ;
#63 = CLOSED_SHELL ( 'NONE', ( #154, #58, #178, #188, #36, #54 ) ) ;
#64 = DIRECTION ( 'NONE',  ( -0.000000000000000000, -1.000000000000000000, -0.000000000000000000 ) ) ;
#65 = DIRECTION ( 'NONE',  ( 1.000000000000000000, 0.000000000000000000, 0.000000000000000000 ) ) ;
#66 = ORIENTED_EDGE ( 'NONE', *, *, #119, .F. ) ;
#67 = EDGE_CURVE ( 'NONE', #15, #29, #159, .T. ) ;
#68 = EDGE_LOOP ( 'NONE', ( #115, #66, #203, #183 ) ) ;
#69 = VECTOR ( 'NONE', #61, 1000.000000000000000 ) ;
#70 = LINE ( 'NONE', #220, #88 ) ;
#71 = DIRECTION ( 'NONE',  ( -1.000000000000000000, -0.000000000000000000, -0.000000000000000000 ) ) ;
#72 = VERTEX_POINT ( 'NONE', #43 ) ;
#73 = ORIENTED_EDGE ( 'NONE', *, *, #22, .T. ) ;
#74 = CARTESIAN_POINT ( 'NONE',  ( -25.00000000000000000, -3.000000000000000000, 1000.000000000000000 ) ) ;
#75 = CARTESIAN_POINT ( 'NONE',  ( 25.00000000000000000, -3.000000000000000000, 0.000000000000000000 ) ) ;
#76 = EDGE_CURVE ( 'NONE', #62, #15, #23, .T. ) ;
#77 = CARTESIAN_POINT ( 'NONE',  ( -25.00000000000000000, -3.000000000000000000, 0.000000000000000000 ) ) ;
#78 = DIRECTION ( 'NONE',  ( 0.000000000000000000, 0.000000000000000000, 1.000000000000000000 ) ) ;
#79 = AXIS2_PLACEMENT_3D ( 'NONE', #142, #41, #193 ) ;
#80 = LINE ( 'NONE', #200, #169 ) ;
#81 =( NAMED_UNIT ( * ) PLANE_ANGLE_UNIT ( ) SI_UNIT ( $, .RADIAN. ) );
#82 = VERTEX_POINT ( 'NONE', #171 ) ;
#83 = ORIENTED_EDGE ( 'NONE', *, *, #119, .T. ) ;
#84 = APPLICATION_CONTEXT ( 'automotive_design' ) ;
#85 = DIRECTION ( 'NONE',  ( -0.000000000000000000, -1.000000000000000000, -0.000000000000000000 ) ) ;
#86 = EDGE_CURVE ( 'NONE', #132, #127, #91, .T. ) ;
#87 =( NAMED_UNIT ( * ) PLANE_ANGLE_UNIT ( ) SI_UNIT ( $, .RADIAN. ) );
#88 = VECTOR ( 'NONE', #64, 1000.000000000000000 ) ;
#89 = LINE ( 'NONE', #44, #3 ) ;
#90 = FILL_AREA_STYLE_COLOUR ( '', #145 ) ;
#91 = LINE ( 'NONE', #20, #93 ) ;
#92 = CARTESIAN_POINT ( 'NONE',  ( -25.00000000000000000, 3.000000000000000000, 1000.000000000000000 ) ) ;
#93 = VECTOR ( 'NONE', #108, 1000.000000000000000 ) ;
#94 = ORIENTED_EDGE ( 'NONE', *, *, #86, .T. ) ;
#95 = PRODUCT_CONTEXT ( 'NONE', #84, 'mechanical' ) ;
#96 = APPLICATION_PROTOCOL_DEFINITION ( 'draft international standard', 'automotive_design', 1998, #150 ) ;
#97 = DIRECTION ( 'NONE',  ( 0.000000000000000000, 0.000000000000000000, 1.000000000000000000 ) ) ;
#98 = ORIENTED_EDGE ( 'NONE', *, *, #16, .F. ) ;
#99 = EDGE_LOOP ( 'NONE', ( #149, #98, #174, #168 ) ) ;
#100 = PRODUCT_RELATED_PRODUCT_CATEGORY ( 'part', '', ( #37 ) ) ;
#101 = VECTOR ( 'NONE', #19, 1000.000000000000000 ) ;
#102 = EDGE_LOOP ( 'NONE', ( #186, #17, #156, #219 ) ) ;
#103 = SHAPE_REPRESENTATION ( '\X2\04210431043e0440043a0430\X0\1', ( #34, #160 ), #14 ) ;
#104 = FACE_OUTER_BOUND ( 'NONE', #205, .T. ) ;
#105 = CARTESIAN_POINT ( 'NONE',  ( -25.00000000000000000, 3.000000000000000000, 1000.000000000000000 ) ) ;
#106 = DIRECTION ( 'NONE',  ( 0.000000000000000000, -0.000000000000000000, -1.000000000000000000 ) ) ;
#107 = CARTESIAN_POINT ( 'NONE',  ( 25.00000000000000000, -3.000000000000000000, 1000.000000000000000 ) ) ;
#108 = DIRECTION ( 'NONE',  ( -0.000000000000000000, -0.000000000000000000, -1.000000000000000000 ) ) ;
#109 = UNCERTAINTY_MEASURE_WITH_UNIT (LENGTH_MEASURE( 1.000000000000000082E-05 ), #147, 'distance_accuracy_value', 'NONE');
#110 = PRODUCT_CONTEXT ( 'NONE', #150, 'mechanical' ) ;
#111 = DIRECTION ( 'NONE',  ( 0.000000000000000000, 0.000000000000000000, 1.000000000000000000 ) ) ;
#112 =( NAMED_UNIT ( * ) SI_UNIT ( $, .STERADIAN. ) SOLID_ANGLE_UNIT ( ) );
#113 = AXIS2_PLACEMENT_3D ( 'NONE', #133, #111, #26 ) ;
#114 = DIRECTION ( 'NONE',  ( 0.000000000000000000, 0.000000000000000000, -1.000000000000000000 ) ) ;
#115 = ORIENTED_EDGE ( 'NONE', *, *, #67, .T. ) ;
#116 = DIRECTION ( 'NONE',  ( -1.000000000000000000, 0.000000000000000000, -0.000000000000000000 ) ) ;
#117 = PRODUCT_DEFINITION_SHAPE ( 'NONE', 'NONE',  #167 ) ;
#118 = EDGE_LOOP ( 'NONE', ( #13, #212, #217, #83 ) ) ;
#119 = EDGE_CURVE ( 'NONE', #72, #29, #89, .T. ) ;
#120 = VECTOR ( 'NONE', #157, 1000.000000000000000 ) ;
#121 = DIRECTION ( 'NONE',  ( 1.000000000000000000, 0.000000000000000000, 0.000000000000000000 ) ) ;
#122 = LINE ( 'NONE', #105, #101 ) ;
#123 = CARTESIAN_POINT ( 'NONE',  ( -25.00000000000000000, 3.000000000000000000, 0.000000000000000000 ) ) ;
#124 = AXIS2_PLACEMENT_3D ( 'NONE', #194, #210, #106 ) ;
#125 = FILL_AREA_STYLE ('',( #90 ) ) ;
#126 =( LENGTH_UNIT ( ) NAMED_UNIT ( * ) SI_UNIT ( .MILLI., .METRE. ) );
#127 = VERTEX_POINT ( 'NONE', #123 ) ;
#128 = SURFACE_STYLE_USAGE ( .BOTH. , #4 ) ;
#129 = UNCERTAINTY_MEASURE_WITH_UNIT (LENGTH_MEASURE( 1.000000000000000082E-05 ), #126, 'distance_accuracy_value', 'NONE');
#130 = AXIS2_PLACEMENT_3D ( 'NONE', #56, #18, #192 ) ;
#131 = APPLICATION_CONTEXT ( 'automotive_design' ) ;
#132 = VERTEX_POINT ( 'NONE', #92 ) ;
#133 = CARTESIAN_POINT ( 'NONE',  ( 0.000000000000000000, 0.000000000000000000, 0.000000000000000000 ) ) ;
#134 =( GEOMETRIC_REPRESENTATION_CONTEXT ( 3 ) GLOBAL_UNCERTAINTY_ASSIGNED_CONTEXT ( ( #109 ) ) GLOBAL_UNIT_ASSIGNED_CONTEXT ( ( #147, #81, #112 ) ) REPRESENTATION_CONTEXT ( 'NONE', 'WORKASPACE' ) );
#135 = LINE ( 'NONE', #39, #24 ) ;
#136 =( REPRESENTATION_RELATIONSHIP ('NONE','NONE', #103, #12 ) REPRESENTATION_RELATIONSHIP_WITH_TRANSFORMATION ( #151 )SHAPE_REPRESENTATION_RELATIONSHIP( ) );
#137 = ORIENTED_EDGE ( 'NONE', *, *, #208, .T. ) ;
#138 = PRODUCT_DEFINITION ( 'UNKNOWN', '', #57, #177 ) ;
#139 = FACE_OUTER_BOUND ( 'NONE', #68, .T. ) ;
#140 = CARTESIAN_POINT ( 'NONE',  ( -25.00000000000000000, -3.000000000000000000, 1000.000000000000000 ) ) ;
#141 = VECTOR ( 'NONE', #121, 1000.000000000000000 ) ;
#142 = CARTESIAN_POINT ( 'NONE',  ( 25.00000000000000000, -3.000000000000000000, 1000.000000000000000 ) ) ;
#143 = ORIENTED_EDGE ( 'NONE', *, *, #222, .T. ) ;
#144 =( NAMED_UNIT ( * ) SI_UNIT ( $, .STERADIAN. ) SOLID_ANGLE_UNIT ( ) );
#145 = COLOUR_RGB ( '',0.7921568627450980005, 0.8196078431372548767, 0.9333333333333333481 ) ;
#146 = SHAPE_REPRESENTATION_RELATIONSHIP ( 'NONE' , 'NONE' ,  #12, #31 ) ;
#147 =( LENGTH_UNIT ( ) NAMED_UNIT ( * ) SI_UNIT ( .MILLI., .METRE. ) );
#148 = MANIFOLD_SOLID_BREP ( '\X2\0411043e0431044b0448043a0430\X0\-\X2\0412044b0442044f043d04430442044c\X0\1', #63 ) ;
#149 = ORIENTED_EDGE ( 'NONE', *, *, #67, .F. ) ;
#150 = APPLICATION_CONTEXT ( 'automotive_design' ) ;
#151 = ITEM_DEFINED_TRANSFORMATION ( 'NONE', 'NONE', #160,  #113 ) ;
#152 = LINE ( 'NONE', #166, #141 ) ;
#153 = PRESENTATION_LAYER_ASSIGNMENT (  '', '', ( #215 ) ) ;
#154 = ADVANCED_FACE ( 'NONE', ( #139 ), #209, .F. ) ;
#155 = ORIENTED_EDGE ( 'NONE', *, *, #202, .F. ) ;
#156 = ORIENTED_EDGE ( 'NONE', *, *, #204, .F. ) ;
#157 = DIRECTION ( 'NONE',  ( -0.000000000000000000, -0.000000000000000000, -1.000000000000000000 ) ) ;
#158 = DIRECTION ( 'NONE',  ( -0.000000000000000000, -0.000000000000000000, -1.000000000000000000 ) ) ;
#159 = LINE ( 'NONE', #75, #69 ) ;
#160 = AXIS2_PLACEMENT_3D ( 'NONE', #9, #78, #27 ) ;
#161 = SURFACE_STYLE_FILL_AREA ( #125 ) ;
#162 = DIRECTION ( 'NONE',  ( 0.000000000000000000, 1.000000000000000000, 0.000000000000000000 ) ) ;
#163 = PRODUCT_DEFINITION_FORMATION_WITH_SPECIFIED_SOURCE ( 'ANY', '', #185, .NOT_KNOWN. ) ;
#164 = APPLICATION_PROTOCOL_DEFINITION ( 'draft international standard', 'automotive_design', 1998, #84 ) ;
#165 = APPLICATION_PROTOCOL_DEFINITION ( 'draft international standard', 'automotive_design', 1998, #131 ) ;
#166 = CARTESIAN_POINT ( 'NONE',  ( -25.00000000000000000, -3.000000000000000000, 0.000000000000000000 ) ) ;
#167 = PRODUCT_DEFINITION ( 'UNKNOWN', '', #163, #8 ) ;
#168 = ORIENTED_EDGE ( 'NONE', *, *, #32, .F. ) ;
#169 = VECTOR ( 'NONE', #162, 1000.000000000000000 ) ;
#170 = FACE_OUTER_BOUND ( 'NONE', #102, .T. ) ;
#171 = CARTESIAN_POINT ( 'NONE',  ( -25.00000000000000000, -3.000000000000000000, 1000.000000000000000 ) ) ;
#172 = CARTESIAN_POINT ( 'NONE',  ( 25.00000000000000000, -3.000000000000000000, 1000.000000000000000 ) ) ;
#173 = DIRECTION ( 'NONE',  ( 1.000000000000000000, 0.000000000000000000, 0.000000000000000000 ) ) ;
#174 = ORIENTED_EDGE ( 'NONE', *, *, #213, .F. ) ;
#175 = DIRECTION ( 'NONE',  ( -0.000000000000000000, -0.000000000000000000, -1.000000000000000000 ) ) ;
#176 = VECTOR ( 'NONE', #55, 1000.000000000000000 ) ;
#177 = PRODUCT_DEFINITION_CONTEXT ( 'detailed design', #6, 'design' ) ;
#178 = ADVANCED_FACE ( 'NONE', ( #46 ), #191, .F. ) ;
#179 = APPLICATION_PROTOCOL_DEFINITION ( 'draft international standard', 'automotive_design', 1998, #6 ) ;
#180 = DIRECTION ( 'NONE',  ( 1.000000000000000000, 0.000000000000000000, 0.000000000000000000 ) ) ;
#181 = DIRECTION ( 'NONE',  ( 0.000000000000000000, 0.000000000000000000, 1.000000000000000000 ) ) ;
#182 = CONTEXT_DEPENDENT_SHAPE_REPRESENTATION ( #136, #35 ) ;
#183 = ORIENTED_EDGE ( 'NONE', *, *, #76, .T. ) ;
#184 = FACE_OUTER_BOUND ( 'NONE', #118, .T. ) ;
#185 = PRODUCT ( 'SH50S6X \X2\0410043b044e043c0438043d0438043504320430044f\X0\ \X2\043f043e043b043e04410430\X0\ \X2\04100414\X0\31\X2\0422\X0\ 50\X2\0445\X0\6 (\X2\041104350437\X0\ \X2\043f043e043a0440044b04420438044f\X0\)_50\X2\0445\X0\6', 'SH50S6X \X2\0410043b044e043c0438043d0438043504320430044f\X0\ \X2\043f043e043b043e04410430\X0\ \X2\04100414\X0\31\X2\0422\X0\ 50\X2\0445\X0\6 (\X2\041104350437\X0\ \X2\043f043e043a0440044b04420438044f\X0\)_50\X2\0445\X0\6', '', ( #95 ) ) ;
#186 = ORIENTED_EDGE ( 'NONE', *, *, #16, .T. ) ;
#187 = VECTOR ( 'NONE', #175, 1000.000000000000000 ) ;
#188 = ADVANCED_FACE ( 'NONE', ( #170 ), #5, .F. ) ;
#189 = CARTESIAN_POINT ( 'NONE',  ( -25.00000000000000000, 3.000000000000000000, 0.000000000000000000 ) ) ;
#190 = PRODUCT_DEFINITION_SHAPE ( 'NONE', 'NONE',  #138 ) ;
#191 = PLANE ( 'NONE',  #7 ) ;
#192 = DIRECTION ( 'NONE',  ( 0.000000000000000000, -0.000000000000000000, 1.000000000000000000 ) ) ;
#193 = DIRECTION ( 'NONE',  ( 0.000000000000000000, 0.000000000000000000, 1.000000000000000000 ) ) ;
#194 = CARTESIAN_POINT ( 'NONE',  ( -25.00000000000000000, 3.000000000000000000, 1000.000000000000000 ) ) ;
#195 =( NAMED_UNIT ( * ) PLANE_ANGLE_UNIT ( ) SI_UNIT ( $, .RADIAN. ) );
#196 = CARTESIAN_POINT ( 'NONE',  ( 0.000000000000000000, 0.000000000000000000, 0.000000000000000000 ) ) ;
#197 = DIRECTION ( 'NONE',  ( -1.000000000000000000, 0.000000000000000000, -0.000000000000000000 ) ) ;
#198 = VECTOR ( 'NONE', #71, 1000.000000000000000 ) ;
#199 = CARTESIAN_POINT ( 'NONE',  ( 0.000000000000000000, 0.000000000000000000, 0.000000000000000000 ) ) ;
#200 = CARTESIAN_POINT ( 'NONE',  ( 25.00000000000000000, -3.000000000000000000, 1000.000000000000000 ) ) ;
#201 = PLANE ( 'NONE',  #206 ) ;
#202 = EDGE_CURVE ( 'NONE', #82, #60, #42, .T. ) ;
#203 = ORIENTED_EDGE ( 'NONE', *, *, #222, .F. ) ;
#204 = EDGE_CURVE ( 'NONE', #82, #62, #2, .T. ) ;
#205 = EDGE_LOOP ( 'NONE', ( #143, #137, #73, #53 ) ) ;
#206 = AXIS2_PLACEMENT_3D ( 'NONE', #52, #114, #116 ) ;
#207 = DIRECTION ( 'NONE',  ( 0.000000000000000000, 0.000000000000000000, -1.000000000000000000 ) ) ;
#208 = EDGE_CURVE ( 'NONE', #72, #132, #122, .T. ) ;
#209 = PLANE ( 'NONE',  #79 ) ;
#210 = DIRECTION ( 'NONE',  ( 0.000000000000000000, -1.000000000000000000, 0.000000000000000000 ) ) ;
#211 = CARTESIAN_POINT ( 'NONE',  ( -25.00000000000000000, -3.000000000000000000, 1000.000000000000000 ) ) ;
#212 = ORIENTED_EDGE ( 'NONE', *, *, #86, .F. ) ;
#213 = EDGE_CURVE ( 'NONE', #127, #60, #70, .T. ) ;
#214 =( LENGTH_UNIT ( ) NAMED_UNIT ( * ) SI_UNIT ( .MILLI., .METRE. ) );
#215 = STYLED_ITEM ( 'NONE', ( #21 ), #148 ) ;
#216 =( NAMED_UNIT ( * ) SI_UNIT ( $, .STERADIAN. ) SOLID_ANGLE_UNIT ( ) );
#217 = ORIENTED_EDGE ( 'NONE', *, *, #208, .F. ) ;
#218 = SHAPE_DEFINITION_REPRESENTATION ( #117, #12 ) ;
#219 = ORIENTED_EDGE ( 'NONE', *, *, #202, .T. ) ;
#220 = CARTESIAN_POINT ( 'NONE',  ( -25.00000000000000000, -3.000000000000000000, 0.000000000000000000 ) ) ;
#221 = LINE ( 'NONE', #189, #198 ) ;
#222 = EDGE_CURVE ( 'NONE', #62, #72, #80, .T. ) ;
#223 = AXIS2_PLACEMENT_3D ( 'NONE', #11, #10, #197 ) ;
#224 = NEXT_ASSEMBLY_USAGE_OCCURRENCE ( 'NAUO1', ' ', ' ', #138, #167, $ ) ;
ENDSEC;
END-ISO-10303-21;
