ISO-10303-21;
HEADER;
FILE_DESCRIPTION (( 'STEP AP214' ),
    '1' );
FILE_NAME ('Ñáîðêà1.STEP',
    '2024-12-03T11:36:29',
    ( '' ),
    ( '' ),
    'SwSTEP 2.0',
    'SolidWorks 2024',
    '' );
FILE_SCHEMA (( 'AUTOMOTIVE_DESIGN' ));
ENDSEC;

DATA;
#1 = EDGE_LOOP ( 'NONE', ( #124, #76, #263, #349 ) ) ;
#2 = ADVANCED_FACE ( 'NONE', ( #107 ), #216, .F. ) ;
#3 = PLANE ( 'NONE',  #281 ) ;
#4 = MECHANICAL_DESIGN_GEOMETRIC_PRESENTATION_REPRESENTATION (  '', ( #249 ), #168 ) ;
#5 =( NAMED_UNIT ( * ) PLANE_ANGLE_UNIT ( ) SI_UNIT ( $, .RADIAN. ) );
#6 = DIRECTION ( 'NONE',  ( -0.000000000000000000, -0.000000000000000000, -1.000000000000000000 ) ) ;
#7 = EDGE_CURVE ( 'NONE', #206, #289, #160, .T. ) ;
#8 = DIRECTION ( 'NONE',  ( 0.000000000000000000, 1.000000000000000000, 0.000000000000000000 ) ) ;
#9 = APPLICATION_PROTOCOL_DEFINITION ( 'draft international standard', 'automotive_design', 1998, #59 ) ;
#10 = DIRECTION ( 'NONE',  ( -0.000000000000000000, -1.000000000000000000, -0.000000000000000000 ) ) ;
#11 = EDGE_LOOP ( 'NONE', ( #167, #13, #262, #240 ) ) ;
#12 = VECTOR ( 'NONE', #292, 1000.000000000000000 ) ;
#13 = ORIENTED_EDGE ( 'NONE', *, *, #31, .T. ) ;
#14 = CARTESIAN_POINT ( 'NONE',  ( 17.00000000000001421, -37.00000000000000711, 0.000000000000000000 ) ) ;
#15 = EDGE_LOOP ( 'NONE', ( #340, #102, #133, #326 ) ) ;
#16 = CARTESIAN_POINT ( 'NONE',  ( -17.00000000000000000, 37.00000000000000711, 1000.000000000000000 ) ) ;
#17 = CARTESIAN_POINT ( 'NONE',  ( 20.00000000000000000, -40.00000000000000711, 1000.000000000000000 ) ) ;
#18 = VECTOR ( 'NONE', #318, 1000.000000000000000 ) ;
#19 = CARTESIAN_POINT ( 'NONE',  ( -17.00000000000000000, -37.00000000000000711, 1000.000000000000000 ) ) ;
#20 = DIRECTION ( 'NONE',  ( 0.000000000000000000, -1.000000000000000000, 0.000000000000000000 ) ) ;
#21 = PRODUCT_RELATED_PRODUCT_CATEGORY ( 'part', '', ( #176 ) ) ;
#22 = ORIENTED_EDGE ( 'NONE', *, *, #119, .F. ) ;
#23 = DIRECTION ( 'NONE',  ( 1.000000000000000000, 0.000000000000000000, 0.000000000000000000 ) ) ;
#24 = DIRECTION ( 'NONE',  ( 0.000000000000000000, 1.000000000000000000, 0.000000000000000000 ) ) ;
#25 = DIRECTION ( 'NONE',  ( 1.000000000000000000, 0.000000000000000000, 0.000000000000000000 ) ) ;
#26 = DIRECTION ( 'NONE',  ( 1.000000000000000000, 0.000000000000000000, 0.000000000000000000 ) ) ;
#27 = VECTOR ( 'NONE', #293, 1000.000000000000000 ) ;
#28 = ORIENTED_EDGE ( 'NONE', *, *, #112, .T. ) ;
#29 = LINE ( 'NONE', #284, #163 ) ;
#30 = LINE ( 'NONE', #258, #301 ) ;
#31 = EDGE_CURVE ( 'NONE', #289, #182, #111, .T. ) ;
#32 = VECTOR ( 'NONE', #10, 1000.000000000000000 ) ;
#33 = FACE_OUTER_BOUND ( 'NONE', #266, .T. ) ;
#34 = VERTEX_POINT ( 'NONE', #324 ) ;
#35 = SURFACE_SIDE_STYLE ('',( #310 ) ) ;
#36 = ORIENTED_EDGE ( 'NONE', *, *, #299, .T. ) ;
#37 = LINE ( 'NONE', #228, #32 ) ;
#38 = ITEM_DEFINED_TRANSFORMATION ( 'NONE', 'NONE', #106,  #48 ) ;
#39 = PRESENTATION_LAYER_ASSIGNMENT (  '', '', ( #249 ) ) ;
#40 = ORIENTED_EDGE ( 'NONE', *, *, #305, .T. ) ;
#41 = APPLICATION_CONTEXT ( 'automotive_design' ) ;
#42 = LINE ( 'NONE', #16, #12 ) ;
#43 = ORIENTED_EDGE ( 'NONE', *, *, #213, .F. ) ;
#44 = DIRECTION ( 'NONE',  ( 0.000000000000000000, -0.000000000000000000, 1.000000000000000000 ) ) ;
#45 = PRODUCT_DEFINITION_SHAPE ( 'NONE', 'NONE',  #313 ) ;
#46 = LINE ( 'NONE', #19, #193 ) ;
#47 = CARTESIAN_POINT ( 'NONE',  ( 20.00000000000000000, 39.99999999999999289, 1000.000000000000000 ) ) ;
#48 = AXIS2_PLACEMENT_3D ( 'NONE', #329, #165, #247 ) ;
#49 = ORIENTED_EDGE ( 'NONE', *, *, #178, .F. ) ;
#50 = CARTESIAN_POINT ( 'NONE',  ( -20.00000000000000000, -40.00000000000000711, 0.000000000000000000 ) ) ;
#51 = DIRECTION ( 'NONE',  ( -1.000000000000000000, 0.000000000000000000, 0.000000000000000000 ) ) ;
#52 = ADVANCED_FACE ( 'NONE', ( #270 ), #218, .T. ) ;
#53 = ORIENTED_EDGE ( 'NONE', *, *, #260, .F. ) ;
#54 = VECTOR ( 'NONE', #325, 1000.000000000000000 ) ;
#55 = LINE ( 'NONE', #185, #27 ) ;
#56 = CARTESIAN_POINT ( 'NONE',  ( -20.00000000000000000, 39.99999999999999289, 1000.000000000000000 ) ) ;
#57 = UNCERTAINTY_MEASURE_WITH_UNIT (LENGTH_MEASURE( 1.000000000000000082E-05 ), #122, 'distance_accuracy_value', 'NONE');
#58 = FACE_BOUND ( 'NONE', #172, .T. ) ;
#59 = APPLICATION_CONTEXT ( 'automotive_design' ) ;
#60 = ADVANCED_FACE ( 'NONE', ( #139 ), #248, .T. ) ;
#61 = PRODUCT_DEFINITION_SHAPE ( 'NONE', 'NONE',  #360 ) ;
#62 = LINE ( 'NONE', #339, #275 ) ;
#63 = VECTOR ( 'NONE', #233, 1000.000000000000000 ) ;
#64 = CARTESIAN_POINT ( 'NONE',  ( -20.00000000000000000, -40.00000000000000711, 1000.000000000000000 ) ) ;
#65 = VERTEX_POINT ( 'NONE', #303 ) ;
#66 = DIRECTION ( 'NONE',  ( 0.000000000000000000, 0.000000000000000000, -1.000000000000000000 ) ) ;
#67 = ORIENTED_EDGE ( 'NONE', *, *, #291, .T. ) ;
#68 =( LENGTH_UNIT ( ) NAMED_UNIT ( * ) SI_UNIT ( .MILLI., .METRE. ) );
#69 = LINE ( 'NONE', #50, #138 ) ;
#70 = VECTOR ( 'NONE', #181, 1000.000000000000000 ) ;
#71 = ORIENTED_EDGE ( 'NONE', *, *, #299, .F. ) ;
#72 = FACE_OUTER_BOUND ( 'NONE', #317, .T. ) ;
#73 = EDGE_CURVE ( 'NONE', #121, #246, #221, .T. ) ;
#74 = CARTESIAN_POINT ( 'NONE',  ( 20.00000000000000000, -40.00000000000000711, 1000.000000000000000 ) ) ;
#75 = FACE_OUTER_BOUND ( 'NONE', #1, .T. ) ;
#76 = ORIENTED_EDGE ( 'NONE', *, *, #101, .F. ) ;
#77 = PLANE ( 'NONE',  #217 ) ;
#78 = AXIS2_PLACEMENT_3D ( 'NONE', #134, #26, #137 ) ;
#79 = ORIENTED_EDGE ( 'NONE', *, *, #127, .T. ) ;
#80 = ORIENTED_EDGE ( 'NONE', *, *, #305, .F. ) ;
#81 = VECTOR ( 'NONE', #99, 1000.000000000000000 ) ;
#82 = DIRECTION ( 'NONE',  ( -0.000000000000000000, -0.000000000000000000, -1.000000000000000000 ) ) ;
#83 = EDGE_CURVE ( 'NONE', #182, #121, #55, .T. ) ;
#84 = CARTESIAN_POINT ( 'NONE',  ( -17.00000000000000000, -37.00000000000000711, 1000.000000000000000 ) ) ;
#85 = UNCERTAINTY_MEASURE_WITH_UNIT (LENGTH_MEASURE( 1.000000000000000082E-05 ), #68, 'distance_accuracy_value', 'NONE');
#86 = PLANE ( 'NONE',  #130 ) ;
#87 = FILL_AREA_STYLE_COLOUR ( '', #241 ) ;
#88 = EDGE_LOOP ( 'NONE', ( #117, #22, #67, #40 ) ) ;
#89 = AXIS2_PLACEMENT_3D ( 'NONE', #273, #356, #25 ) ;
#90 = CARTESIAN_POINT ( 'NONE',  ( 0.000000000000000000, 0.000000000000000000, 1000.000000000000000 ) ) ;
#91 = PRODUCT ( '\X2\04210431043e0440043a0430\X0\1', '\X2\04210431043e0440043a0430\X0\1', '', ( #144 ) ) ;
#92 = ORIENTED_EDGE ( 'NONE', *, *, #93, .T. ) ;
#93 = EDGE_CURVE ( 'NONE', #105, #34, #46, .T. ) ;
#94 = PLANE ( 'NONE',  #173 ) ;
#95 = ORIENTED_EDGE ( 'NONE', *, *, #264, .T. ) ;
#96 = CARTESIAN_POINT ( 'NONE',  ( 20.00000000000000000, 39.99999999999999289, 0.000000000000000000 ) ) ;
#97 = APPLICATION_PROTOCOL_DEFINITION ( 'draft international standard', 'automotive_design', 1998, #41 ) ;
#98 = VERTEX_POINT ( 'NONE', #352 ) ;
#99 = DIRECTION ( 'NONE',  ( 1.000000000000000000, 0.000000000000000000, 0.000000000000000000 ) ) ;
#100 = VECTOR ( 'NONE', #336, 1000.000000000000000 ) ;
#101 = EDGE_CURVE ( 'NONE', #182, #229, #104, .T. ) ;
#102 = ORIENTED_EDGE ( 'NONE', *, *, #222, .F. ) ;
#103 = CARTESIAN_POINT ( 'NONE',  ( -17.00000000000000000, 37.00000000000000711, 0.000000000000000000 ) ) ;
#104 = LINE ( 'NONE', #214, #135 ) ;
#105 = VERTEX_POINT ( 'NONE', #84 ) ;
#106 = AXIS2_PLACEMENT_3D ( 'NONE', #161, #272, #250 ) ;
#107 = FACE_OUTER_BOUND ( 'NONE', #322, .T. ) ;
#108 =( LENGTH_UNIT ( ) NAMED_UNIT ( * ) SI_UNIT ( .MILLI., .METRE. ) );
#109 = ADVANCED_FACE ( 'NONE', ( #171 ), #227, .F. ) ;
#110 = ORIENTED_EDGE ( 'NONE', *, *, #222, .T. ) ;
#111 = LINE ( 'NONE', #223, #348 ) ;
#112 = EDGE_CURVE ( 'NONE', #261, #268, #62, .T. ) ;
#113 = LINE ( 'NONE', #280, #271 ) ;
#114 = AXIS2_PLACEMENT_3D ( 'NONE', #64, #255, #286 ) ;
#115 = CARTESIAN_POINT ( 'NONE',  ( -20.00000000000000000, -40.00000000000000711, 1000.000000000000000 ) ) ;
#116 = DIRECTION ( 'NONE',  ( 0.000000000000000000, 0.000000000000000000, -1.000000000000000000 ) ) ;
#117 = ORIENTED_EDGE ( 'NONE', *, *, #342, .F. ) ;
#118 = PRESENTATION_STYLE_ASSIGNMENT (( #146 ) ) ;
#119 = EDGE_CURVE ( 'NONE', #34, #187, #333, .T. ) ;
#120 = DIRECTION ( 'NONE',  ( 1.000000000000000000, 0.000000000000000000, 0.000000000000000000 ) ) ;
#121 = VERTEX_POINT ( 'NONE', #200 ) ;
#122 =( LENGTH_UNIT ( ) NAMED_UNIT ( * ) SI_UNIT ( .MILLI., .METRE. ) );
#123 = DIRECTION ( 'NONE',  ( 0.000000000000000000, 0.000000000000000000, 1.000000000000000000 ) ) ;
#124 = ORIENTED_EDGE ( 'NONE', *, *, #188, .T. ) ;
#125 = DIRECTION ( 'NONE',  ( -0.000000000000000000, -0.000000000000000000, -1.000000000000000000 ) ) ;
#126 =( NAMED_UNIT ( * ) PLANE_ANGLE_UNIT ( ) SI_UNIT ( $, .RADIAN. ) );
#127 = EDGE_CURVE ( 'NONE', #65, #98, #224, .T. ) ;
#128 = ORIENTED_EDGE ( 'NONE', *, *, #291, .F. ) ;
#129 = CARTESIAN_POINT ( 'NONE',  ( -20.00000000000000000, 39.99999999999999289, 0.000000000000000000 ) ) ;
#130 = AXIS2_PLACEMENT_3D ( 'NONE', #308, #279, #309 ) ;
#131 = DIRECTION ( 'NONE',  ( 0.000000000000000000, 0.000000000000000000, 1.000000000000000000 ) ) ;
#132 = CARTESIAN_POINT ( 'NONE',  ( -17.00000000000000000, -37.00000000000000711, 0.000000000000000000 ) ) ;
#133 = ORIENTED_EDGE ( 'NONE', *, *, #236, .F. ) ;
#134 = CARTESIAN_POINT ( 'NONE',  ( -17.00000000000000000, -37.00000000000000711, 1000.000000000000000 ) ) ;
#135 = VECTOR ( 'NONE', #337, 1000.000000000000000 ) ;
#136 = ADVANCED_FACE ( 'NONE', ( #230, #58 ), #3, .F. ) ;
#137 = DIRECTION ( 'NONE',  ( 0.000000000000000000, 0.000000000000000000, -1.000000000000000000 ) ) ;
#138 = VECTOR ( 'NONE', #294, 1000.000000000000000 ) ;
#139 = FACE_OUTER_BOUND ( 'NONE', #88, .T. ) ;
#140 = PRODUCT_DEFINITION ( 'UNKNOWN', '', #194, #278 ) ;
#141 = PRODUCT_DEFINITION_CONTEXT ( 'detailed design', #41, 'design' ) ;
#142 = DIRECTION ( 'NONE',  ( -0.000000000000000000, -1.000000000000000000, -0.000000000000000000 ) ) ;
#143 = DIRECTION ( 'NONE',  ( -0.000000000000000000, -0.000000000000000000, -1.000000000000000000 ) ) ;
#144 = PRODUCT_CONTEXT ( 'NONE', #244, 'mechanical' ) ;
#145 = CARTESIAN_POINT ( 'NONE',  ( -17.00000000000000000, 37.00000000000000711, 1000.000000000000000 ) ) ;
#146 = SURFACE_STYLE_USAGE ( .BOTH. , #35 ) ;
#147 = ORIENTED_EDGE ( 'NONE', *, *, #196, .F. ) ;
#148 = AXIS2_PLACEMENT_3D ( 'NONE', #115, #203, #66 ) ;
#149 = DIRECTION ( 'NONE',  ( 1.000000000000000000, 0.000000000000000000, 0.000000000000000000 ) ) ;
#150 =( GEOMETRIC_REPRESENTATION_CONTEXT ( 3 ) GLOBAL_UNCERTAINTY_ASSIGNED_CONTEXT ( ( #85 ) ) GLOBAL_UNIT_ASSIGNED_CONTEXT ( ( #68, #5, #274 ) ) REPRESENTATION_CONTEXT ( 'NONE', 'WORKASPACE' ) );
#151 = ADVANCED_FACE ( 'NONE', ( #33, #169 ), #86, .T. ) ;
#152 = ORIENTED_EDGE ( 'NONE', *, *, #83, .F. ) ;
#153 = DIRECTION ( 'NONE',  ( 0.000000000000000000, -0.000000000000000000, -1.000000000000000000 ) ) ;
#154 =( REPRESENTATION_RELATIONSHIP ('NONE','NONE', #358, #351 ) REPRESENTATION_RELATIONSHIP_WITH_TRANSFORMATION ( #38 )SHAPE_REPRESENTATION_RELATIONSHIP( ) );
#155 = CARTESIAN_POINT ( 'NONE',  ( -20.00000000000000000, 39.99999999999999289, 1000.000000000000000 ) ) ;
#156 = ORIENTED_EDGE ( 'NONE', *, *, #178, .T. ) ;
#157 = LINE ( 'NONE', #14, #63 ) ;
#158 = ORIENTED_EDGE ( 'NONE', *, *, #264, .F. ) ;
#159 = DIRECTION ( 'NONE',  ( 0.000000000000000000, -0.000000000000000000, -1.000000000000000000 ) ) ;
#160 = LINE ( 'NONE', #269, #304 ) ;
#161 = CARTESIAN_POINT ( 'NONE',  ( 0.000000000000000000, 0.000000000000000000, 0.000000000000000000 ) ) ;
#162 = DIRECTION ( 'NONE',  ( -1.000000000000000000, -0.000000000000000000, -0.000000000000000000 ) ) ;
#163 = VECTOR ( 'NONE', #142, 1000.000000000000000 ) ;
#164 = EDGE_CURVE ( 'NONE', #289, #268, #113, .T. ) ;
#165 = DIRECTION ( 'NONE',  ( 0.000000000000000000, 0.000000000000000000, 1.000000000000000000 ) ) ;
#166 = SHAPE_REPRESENTATION_RELATIONSHIP ( 'NONE' , 'NONE' ,  #351, #345 ) ;
#167 = ORIENTED_EDGE ( 'NONE', *, *, #7, .T. ) ;
#168 =( GEOMETRIC_REPRESENTATION_CONTEXT ( 3 ) GLOBAL_UNCERTAINTY_ASSIGNED_CONTEXT ( ( #57 ) ) GLOBAL_UNIT_ASSIGNED_CONTEXT ( ( #122, #306, #254 ) ) REPRESENTATION_CONTEXT ( 'NONE', 'WORKASPACE' ) );
#169 = FACE_BOUND ( 'NONE', #338, .T. ) ;
#170 = CARTESIAN_POINT ( 'NONE',  ( 17.00000000000001421, -37.00000000000000711, 0.000000000000000000 ) ) ;
#171 = FACE_OUTER_BOUND ( 'NONE', #285, .T. ) ;
#172 = EDGE_LOOP ( 'NONE', ( #320, #49, #191, #128 ) ) ;
#173 = AXIS2_PLACEMENT_3D ( 'NONE', #183, #212, #44 ) ;
#174 = CARTESIAN_POINT ( 'NONE',  ( 20.00000000000000000, -40.00000000000000711, 1000.000000000000000 ) ) ;
#175 = PLANE ( 'NONE',  #114 ) ;
#176 = PRODUCT ( 'PR4080S3 \X2\041f0440043e04440438043b044c\X0\ \X2\0430043b044e043c0438043d043804350432044b0439\X0\, \X2\043a043204300434044004300442\X0\ 40x80x3 (\X2\041104350437\X0\ \X2\043f043e043a0440044b04420438044f\X0\)_00', 'PR4080S3 \X2\041f0440043e04440438043b044c\X0\ \X2\0430043b044e043c0438043d043804350432044b0439\X0\, \X2\043a043204300434044004300442\X0\ 40x80x3 (\X2\041104350437\X0\ \X2\043f043e043a0440044b04420438044f\X0\)_00', '', ( #257 ) ) ;
#177 = CARTESIAN_POINT ( 'NONE',  ( -17.00000000000000000, -37.00000000000000711, 1000.000000000000000 ) ) ;
#178 = EDGE_CURVE ( 'NONE', #98, #105, #29, .T. ) ;
#179 = SHAPE_DEFINITION_REPRESENTATION ( #316, #351 ) ;
#180 = AXIS2_PLACEMENT_3D ( 'NONE', #242, #341, #153 ) ;
#181 = DIRECTION ( 'NONE',  ( 0.000000000000000000, 1.000000000000000000, 0.000000000000000000 ) ) ;
#182 = VERTEX_POINT ( 'NONE', #56 ) ;
#183 = CARTESIAN_POINT ( 'NONE',  ( -17.00000000000000000, -37.00000000000000711, 1000.000000000000000 ) ) ;
#184 = APPLICATION_PROTOCOL_DEFINITION ( 'draft international standard', 'automotive_design', 1998, #244 ) ;
#185 = CARTESIAN_POINT ( 'NONE',  ( -20.00000000000000000, -40.00000000000000711, 1000.000000000000000 ) ) ;
#186 = PLANE ( 'NONE',  #180 ) ;
#187 = VERTEX_POINT ( 'NONE', #170 ) ;
#188 = EDGE_CURVE ( 'NONE', #268, #229, #30, .T. ) ;
#189 = DIRECTION ( 'NONE',  ( -0.000000000000000000, -0.000000000000000000, -1.000000000000000000 ) ) ;
#190 = ORIENTED_EDGE ( 'NONE', *, *, #73, .F. ) ;
#191 = ORIENTED_EDGE ( 'NONE', *, *, #127, .F. ) ;
#192 = ADVANCED_FACE ( 'NONE', ( #314 ), #175, .F. ) ;
#193 = VECTOR ( 'NONE', #243, 1000.000000000000000 ) ;
#194 = PRODUCT_DEFINITION_FORMATION_WITH_SPECIFIED_SOURCE ( 'ANY', '', #176, .NOT_KNOWN. ) ;
#195 = ORIENTED_EDGE ( 'NONE', *, *, #219, .T. ) ;
#196 = EDGE_CURVE ( 'NONE', #295, #315, #37, .T. ) ;
#197 = MANIFOLD_SOLID_BREP ( '\X2\0411043e0431044b0448043a0430\X0\-\X2\0412044b0442044f043d04430442044c\X0\1', #296 ) ;
#198 = VECTOR ( 'NONE', #6, 1000.000000000000000 ) ;
#199 = CARTESIAN_POINT ( 'NONE',  ( 17.00000000000001421, -37.00000000000000711, 1000.000000000000000 ) ) ;
#200 = CARTESIAN_POINT ( 'NONE',  ( -20.00000000000000000, -40.00000000000000711, 1000.000000000000000 ) ) ;
#201 = EDGE_CURVE ( 'NONE', #105, #315, #265, .T. ) ;
#202 = FILL_AREA_STYLE ('',( #87 ) ) ;
#203 = DIRECTION ( 'NONE',  ( 1.000000000000000000, 0.000000000000000000, 0.000000000000000000 ) ) ;
#204 = ORIENTED_EDGE ( 'NONE', *, *, #7, .F. ) ;
#205 = SHAPE_DEFINITION_REPRESENTATION ( #45, #358 ) ;
#206 = VERTEX_POINT ( 'NONE', #174 ) ;
#207 = CARTESIAN_POINT ( 'NONE',  ( -17.00000000000000000, 37.00000000000000711, 0.000000000000000000 ) ) ;
#208 = EDGE_LOOP ( 'NONE', ( #71, #80, #79, #238 ) ) ;
#209 = VECTOR ( 'NONE', #149, 1000.000000000000000 ) ;
#210 = LINE ( 'NONE', #267, #54 ) ;
#211 = ORIENTED_EDGE ( 'NONE', *, *, #196, .T. ) ;
#212 = DIRECTION ( 'NONE',  ( 0.000000000000000000, 1.000000000000000000, 0.000000000000000000 ) ) ;
#213 = EDGE_CURVE ( 'NONE', #98, #295, #42, .T. ) ;
#214 = CARTESIAN_POINT ( 'NONE',  ( -20.00000000000000000, 39.99999999999999289, 1000.000000000000000 ) ) ;
#215 = FACE_OUTER_BOUND ( 'NONE', #208, .T. ) ;
#216 = PLANE ( 'NONE',  #251 ) ;
#217 = AXIS2_PLACEMENT_3D ( 'NONE', #155, #20, #159 ) ;
#218 = PLANE ( 'NONE',  #78 ) ;
#219 = EDGE_CURVE ( 'NONE', #315, #187, #353, .T. ) ;
#220 = VECTOR ( 'NONE', #125, 1000.000000000000000 ) ;
#221 = LINE ( 'NONE', #332, #288 ) ;
#222 = EDGE_CURVE ( 'NONE', #206, #261, #237, .T. ) ;
#223 = CARTESIAN_POINT ( 'NONE',  ( -20.00000000000000000, 39.99999999999999289, 1000.000000000000000 ) ) ;
#224 = LINE ( 'NONE', #145, #100 ) ;
#225 = VECTOR ( 'NONE', #23, 1000.000000000000000 ) ;
#226 = ADVANCED_FACE ( 'NONE', ( #215 ), #186, .T. ) ;
#227 = PLANE ( 'NONE',  #148 ) ;
#228 = CARTESIAN_POINT ( 'NONE',  ( -17.00000000000000000, -37.00000000000000711, 0.000000000000000000 ) ) ;
#229 = VERTEX_POINT ( 'NONE', #129 ) ;
#230 = FACE_OUTER_BOUND ( 'NONE', #11, .T. ) ;
#231 = ORIENTED_EDGE ( 'NONE', *, *, #119, .T. ) ;
#232 =( GEOMETRIC_REPRESENTATION_CONTEXT ( 3 ) GLOBAL_UNCERTAINTY_ASSIGNED_CONTEXT ( ( #334 ) ) GLOBAL_UNIT_ASSIGNED_CONTEXT ( ( #108, #126, #344 ) ) REPRESENTATION_CONTEXT ( 'NONE', 'WORKASPACE' ) );
#233 = DIRECTION ( 'NONE',  ( 0.000000000000000000, 1.000000000000000000, 0.000000000000000000 ) ) ;
#234 = APPLICATION_PROTOCOL_DEFINITION ( 'draft international standard', 'automotive_design', 1998, #327 ) ;
#235 = ORIENTED_EDGE ( 'NONE', *, *, #201, .T. ) ;
#236 = EDGE_CURVE ( 'NONE', #121, #206, #328, .T. ) ;
#237 = LINE ( 'NONE', #17, #331 ) ;
#238 = ORIENTED_EDGE ( 'NONE', *, *, #213, .T. ) ;
#239 = CARTESIAN_POINT ( 'NONE',  ( -20.00000000000000000, -40.00000000000000711, 0.000000000000000000 ) ) ;
#240 = ORIENTED_EDGE ( 'NONE', *, *, #236, .T. ) ;
#241 = COLOUR_RGB ( '',0.7921568627450980005, 0.8196078431372548767, 0.9333333333333333481 ) ;
#242 = CARTESIAN_POINT ( 'NONE',  ( -17.00000000000000000, 37.00000000000000711, 1000.000000000000000 ) ) ;
#243 = DIRECTION ( 'NONE',  ( 1.000000000000000000, 0.000000000000000000, 0.000000000000000000 ) ) ;
#244 = APPLICATION_CONTEXT ( 'automotive_design' ) ;
#245 = CARTESIAN_POINT ( 'NONE',  ( 17.00000000000001421, 37.00000000000000711, 0.000000000000000000 ) ) ;
#246 = VERTEX_POINT ( 'NONE', #239 ) ;
#247 = DIRECTION ( 'NONE',  ( 1.000000000000000000, 0.000000000000000000, 0.000000000000000000 ) ) ;
#248 = PLANE ( 'NONE',  #307 ) ;
#249 = STYLED_ITEM ( 'NONE', ( #118 ), #197 ) ;
#250 = DIRECTION ( 'NONE',  ( 1.000000000000000000, 0.000000000000000000, 0.000000000000000000 ) ) ;
#251 = AXIS2_PLACEMENT_3D ( 'NONE', #74, #51, #131 ) ;
#252 = DIRECTION ( 'NONE',  ( 0.000000000000000000, 0.000000000000000000, 1.000000000000000000 ) ) ;
#253 = CARTESIAN_POINT ( 'NONE',  ( 17.00000000000001421, -37.00000000000000711, 1000.000000000000000 ) ) ;
#254 =( NAMED_UNIT ( * ) SI_UNIT ( $, .STERADIAN. ) SOLID_ANGLE_UNIT ( ) );
#255 = DIRECTION ( 'NONE',  ( 0.000000000000000000, 1.000000000000000000, 0.000000000000000000 ) ) ;
#256 = DIRECTION ( 'NONE',  ( -1.000000000000000000, -0.000000000000000000, -0.000000000000000000 ) ) ;
#257 = PRODUCT_CONTEXT ( 'NONE', #327, 'mechanical' ) ;
#258 = CARTESIAN_POINT ( 'NONE',  ( -20.00000000000000000, 39.99999999999999289, 0.000000000000000000 ) ) ;
#259 = ORIENTED_EDGE ( 'NONE', *, *, #188, .F. ) ;
#260 = EDGE_CURVE ( 'NONE', #246, #261, #347, .T. ) ;
#261 = VERTEX_POINT ( 'NONE', #287 ) ;
#262 = ORIENTED_EDGE ( 'NONE', *, *, #83, .T. ) ;
#263 = ORIENTED_EDGE ( 'NONE', *, *, #31, .F. ) ;
#264 = EDGE_CURVE ( 'NONE', #229, #246, #69, .T. ) ;
#265 = LINE ( 'NONE', #177, #220 ) ;
#266 = EDGE_LOOP ( 'NONE', ( #359, #53, #158, #259 ) ) ;
#267 = CARTESIAN_POINT ( 'NONE',  ( 17.00000000000001421, 37.00000000000000711, 1000.000000000000000 ) ) ;
#268 = VERTEX_POINT ( 'NONE', #96 ) ;
#269 = CARTESIAN_POINT ( 'NONE',  ( 20.00000000000000000, -40.00000000000000711, 1000.000000000000000 ) ) ;
#270 = FACE_OUTER_BOUND ( 'NONE', #298, .T. ) ;
#271 = VECTOR ( 'NONE', #143, 1000.000000000000000 ) ;
#272 = DIRECTION ( 'NONE',  ( 0.000000000000000000, 0.000000000000000000, 1.000000000000000000 ) ) ;
#273 = CARTESIAN_POINT ( 'NONE',  ( 0.000000000000000000, 0.000000000000000000, 0.000000000000000000 ) ) ;
#274 =( NAMED_UNIT ( * ) SI_UNIT ( $, .STERADIAN. ) SOLID_ANGLE_UNIT ( ) );
#275 = VECTOR ( 'NONE', #8, 1000.000000000000000 ) ;
#276 = PRODUCT_DEFINITION_FORMATION_WITH_SPECIFIED_SOURCE ( 'ANY', '', #91, .NOT_KNOWN. ) ;
#277 = VERTEX_POINT ( 'NONE', #245 ) ;
#278 = PRODUCT_DEFINITION_CONTEXT ( 'detailed design', #59, 'design' ) ;
#279 = DIRECTION ( 'NONE',  ( 0.000000000000000000, 0.000000000000000000, -1.000000000000000000 ) ) ;
#280 = CARTESIAN_POINT ( 'NONE',  ( 20.00000000000000000, 39.99999999999999289, 1000.000000000000000 ) ) ;
#281 = AXIS2_PLACEMENT_3D ( 'NONE', #90, #116, #335 ) ;
#282 = AXIS2_PLACEMENT_3D ( 'NONE', #311, #123, #120 ) ;
#283 = ORIENTED_EDGE ( 'NONE', *, *, #219, .F. ) ;
#284 = CARTESIAN_POINT ( 'NONE',  ( -17.00000000000000000, -37.00000000000000711, 1000.000000000000000 ) ) ;
#285 = EDGE_LOOP ( 'NONE', ( #95, #190, #152, #312 ) ) ;
#286 = DIRECTION ( 'NONE',  ( 0.000000000000000000, -0.000000000000000000, 1.000000000000000000 ) ) ;
#287 = CARTESIAN_POINT ( 'NONE',  ( 20.00000000000000000, -40.00000000000000711, 0.000000000000000000 ) ) ;
#288 = VECTOR ( 'NONE', #82, 1000.000000000000000 ) ;
#289 = VERTEX_POINT ( 'NONE', #47 ) ;
#290 = CARTESIAN_POINT ( 'NONE',  ( 17.00000000000001421, -37.00000000000000711, 1000.000000000000000 ) ) ;
#291 = EDGE_CURVE ( 'NONE', #34, #65, #343, .T. ) ;
#292 = DIRECTION ( 'NONE',  ( -0.000000000000000000, -0.000000000000000000, -1.000000000000000000 ) ) ;
#293 = DIRECTION ( 'NONE',  ( -0.000000000000000000, -1.000000000000000000, -0.000000000000000000 ) ) ;
#294 = DIRECTION ( 'NONE',  ( -0.000000000000000000, -1.000000000000000000, -0.000000000000000000 ) ) ;
#295 = VERTEX_POINT ( 'NONE', #103 ) ;
#296 = CLOSED_SHELL ( 'NONE', ( #136, #151, #2, #357, #109, #192, #330, #60, #226, #52 ) ) ;
#297 = CARTESIAN_POINT ( 'NONE',  ( -20.00000000000000000, -40.00000000000000711, 0.000000000000000000 ) ) ;
#298 = EDGE_LOOP ( 'NONE', ( #147, #43, #156, #235 ) ) ;
#299 = EDGE_CURVE ( 'NONE', #277, #295, #350, .T. ) ;
#300 = ORIENTED_EDGE ( 'NONE', *, *, #342, .T. ) ;
#301 = VECTOR ( 'NONE', #256, 1000.000000000000000 ) ;
#302 = PRODUCT_RELATED_PRODUCT_CATEGORY ( 'part', '', ( #91 ) ) ;
#303 = CARTESIAN_POINT ( 'NONE',  ( 17.00000000000001421, 37.00000000000000711, 1000.000000000000000 ) ) ;
#304 = VECTOR ( 'NONE', #24, 1000.000000000000000 ) ;
#305 = EDGE_CURVE ( 'NONE', #65, #277, #210, .T. ) ;
#306 =( NAMED_UNIT ( * ) PLANE_ANGLE_UNIT ( ) SI_UNIT ( $, .RADIAN. ) );
#307 = AXIS2_PLACEMENT_3D ( 'NONE', #253, #355, #252 ) ;
#308 = CARTESIAN_POINT ( 'NONE',  ( 0.000000000000000000, 0.000000000000000000, 0.000000000000000000 ) ) ;
#309 = DIRECTION ( 'NONE',  ( -1.000000000000000000, 0.000000000000000000, -0.000000000000000000 ) ) ;
#310 = SURFACE_STYLE_FILL_AREA ( #202 ) ;
#311 = CARTESIAN_POINT ( 'NONE',  ( 0.000000000000000000, 0.000000000000000000, 0.000000000000000000 ) ) ;
#312 = ORIENTED_EDGE ( 'NONE', *, *, #101, .T. ) ;
#313 = PRODUCT_DEFINITION ( 'UNKNOWN', '', #276, #141 ) ;
#314 = FACE_OUTER_BOUND ( 'NONE', #15, .T. ) ;
#315 = VERTEX_POINT ( 'NONE', #321 ) ;
#316 = PRODUCT_DEFINITION_SHAPE ( 'NONE', 'NONE',  #140 ) ;
#317 = EDGE_LOOP ( 'NONE', ( #283, #346, #92, #231 ) ) ;
#318 = DIRECTION ( 'NONE',  ( -1.000000000000000000, -0.000000000000000000, -0.000000000000000000 ) ) ;
#319 = CONTEXT_DEPENDENT_SHAPE_REPRESENTATION ( #154, #61 ) ;
#320 = ORIENTED_EDGE ( 'NONE', *, *, #93, .F. ) ;
#321 = CARTESIAN_POINT ( 'NONE',  ( -17.00000000000000000, -37.00000000000000711, 0.000000000000000000 ) ) ;
#322 = EDGE_LOOP ( 'NONE', ( #28, #354, #204, #110 ) ) ;
#323 = CARTESIAN_POINT ( 'NONE',  ( -20.00000000000000000, -40.00000000000000711, 1000.000000000000000 ) ) ;
#324 = CARTESIAN_POINT ( 'NONE',  ( 17.00000000000001421, -37.00000000000000711, 1000.000000000000000 ) ) ;
#325 = DIRECTION ( 'NONE',  ( -0.000000000000000000, -0.000000000000000000, -1.000000000000000000 ) ) ;
#326 = ORIENTED_EDGE ( 'NONE', *, *, #73, .T. ) ;
#327 = APPLICATION_CONTEXT ( 'automotive_design' ) ;
#328 = LINE ( 'NONE', #323, #225 ) ;
#329 = CARTESIAN_POINT ( 'NONE',  ( 0.000000000000000000, 0.000000000000000000, 0.000000000000000000 ) ) ;
#330 = ADVANCED_FACE ( 'NONE', ( #72 ), #94, .T. ) ;
#331 = VECTOR ( 'NONE', #189, 1000.000000000000000 ) ;
#332 = CARTESIAN_POINT ( 'NONE',  ( -20.00000000000000000, -40.00000000000000711, 1000.000000000000000 ) ) ;
#333 = LINE ( 'NONE', #199, #198 ) ;
#334 = UNCERTAINTY_MEASURE_WITH_UNIT (LENGTH_MEASURE( 1.000000000000000082E-05 ), #108, 'distance_accuracy_value', 'NONE');
#335 = DIRECTION ( 'NONE',  ( -1.000000000000000000, 0.000000000000000000, -0.000000000000000000 ) ) ;
#336 = DIRECTION ( 'NONE',  ( -1.000000000000000000, -0.000000000000000000, -0.000000000000000000 ) ) ;
#337 = DIRECTION ( 'NONE',  ( -0.000000000000000000, -0.000000000000000000, -1.000000000000000000 ) ) ;
#338 = EDGE_LOOP ( 'NONE', ( #211, #195, #300, #36 ) ) ;
#339 = CARTESIAN_POINT ( 'NONE',  ( 20.00000000000000000, -40.00000000000000711, 0.000000000000000000 ) ) ;
#340 = ORIENTED_EDGE ( 'NONE', *, *, #260, .T. ) ;
#341 = DIRECTION ( 'NONE',  ( 0.000000000000000000, -1.000000000000000000, 0.000000000000000000 ) ) ;
#342 = EDGE_CURVE ( 'NONE', #187, #277, #157, .T. ) ;
#343 = LINE ( 'NONE', #290, #70 ) ;
#344 =( NAMED_UNIT ( * ) SI_UNIT ( $, .STERADIAN. ) SOLID_ANGLE_UNIT ( ) );
#345 = ADVANCED_BREP_SHAPE_REPRESENTATION ( '', ( #197, #48 ), #150 ) ;
#346 = ORIENTED_EDGE ( 'NONE', *, *, #201, .F. ) ;
#347 = LINE ( 'NONE', #297, #81 ) ;
#348 = VECTOR ( 'NONE', #162, 1000.000000000000000 ) ;
#349 = ORIENTED_EDGE ( 'NONE', *, *, #164, .T. ) ;
#350 = LINE ( 'NONE', #207, #18 ) ;
#351 = SHAPE_REPRESENTATION ( 'PR4080S3 \X2\041f0440043e04440438043b044c\X0\ \X2\0430043b044e043c0438043d043804350432044b0439\X0\, \X2\043a043204300434044004300442\X0\ 40x80x3 (\X2\041104350437\X0\ \X2\043f043e043a0440044b04420438044f\X0\)_00', ( #48 ), #150 ) ;
#352 = CARTESIAN_POINT ( 'NONE',  ( -17.00000000000000000, 37.00000000000000711, 1000.000000000000000 ) ) ;
#353 = LINE ( 'NONE', #132, #209 ) ;
#354 = ORIENTED_EDGE ( 'NONE', *, *, #164, .F. ) ;
#355 = DIRECTION ( 'NONE',  ( -1.000000000000000000, 0.000000000000000000, 0.000000000000000000 ) ) ;
#356 = DIRECTION ( 'NONE',  ( 0.000000000000000000, 0.000000000000000000, 1.000000000000000000 ) ) ;
#357 = ADVANCED_FACE ( 'NONE', ( #75 ), #77, .F. ) ;
#358 = SHAPE_REPRESENTATION ( '\X2\04210431043e0440043a0430\X0\1', ( #282, #106 ), #232 ) ;
#359 = ORIENTED_EDGE ( 'NONE', *, *, #112, .F. ) ;
#360 = NEXT_ASSEMBLY_USAGE_OCCURRENCE ( 'NAUO1', ' ', ' ', #313, #140, $ ) ;
ENDSEC;
END-ISO-10303-21;
