ISO-10303-21;
HEADER;
FILE_DESCRIPTION (( 'STEP AP214' ),
    '1' );
FILE_NAME ('A796 Âèíò òîðöåâîé Ì6 õ 20.STEP',
    '2025-06-24T11:17:31',
    ( '' ),
    ( '' ),
    'SwSTEP 2.0',
    'SolidWorks 2025',
    '' );
FILE_SCHEMA (( 'AUTOMOTIVE_DESIGN' ));
ENDSEC;

DATA;
#1 = CARTESIAN_POINT ( 'NONE',  ( 2.017262722909376915, 1.199999999999999734, 1.124270625825284808 ) ) ;
#2 = EDGE_LOOP ( 'NONE', ( #94, #258 ) ) ;
#3 = EDGE_CURVE ( 'NONE', #172, #64, #67, .T. ) ;
#4 = VECTOR ( 'NONE', #144, 1000.000000000000000 ) ;
#5 = CARTESIAN_POINT ( 'NONE',  ( 0.000000000000000000, 3.499999999999999556, 0.000000000000000000 ) ) ;
#6 = ORIENTED_EDGE ( 'NONE', *, *, #391, .F. ) ;
#7 = EDGE_CURVE ( 'NONE', #341, #101, #398, .T. ) ;
#8 = DIRECTION ( 'NONE',  ( 0.01514870635224041355, 0.000000000000000000, 0.9998852517643479487 ) ) ;
#9 = CIRCLE ( 'NONE', #234, 3.000000000000000000 ) ;
#10 = SURFACE_STYLE_FILL_AREA ( #98 ) ;
#11 = ORIENTED_EDGE ( 'NONE', *, *, #203, .F. ) ;
#12 = UNCERTAINTY_MEASURE_WITH_UNIT (LENGTH_MEASURE( 1.000000000000000082E-05 ), #192, 'distance_accuracy_value', 'NONE');
#13 = ORIENTED_EDGE ( 'NONE', *, *, #50, .F. ) ;
#14 = DIRECTION ( 'NONE',  ( -0.000000000000000000, -1.000000000000000000, -0.000000000000000000 ) ) ;
#15 = ORIENTED_EDGE ( 'NONE', *, *, #41, .F. ) ;
#16 = ADVANCED_FACE ( 'NONE', ( #140, #401 ), #174, .T. ) ;
#17 = CARTESIAN_POINT ( 'NONE',  ( 0.000000000000000000, -25.89743835057741350, -3.000000000000001332 ) ) ;
#18 = DIRECTION ( 'NONE',  ( 0.01514870635224041355, 0.000000000000000000, 0.9998852517643479487 ) ) ;
#19 = FACE_OUTER_BOUND ( 'NONE', #89, .T. ) ;
#20 = PLANE ( 'NONE',  #331 ) ;
#21 = AXIS2_PLACEMENT_3D ( 'NONE', #100, #220, #298 ) ;
#22 = CARTESIAN_POINT ( 'NONE',  ( 0.000000000000000000, 0.000000000000000000, -3.000000000000000000 ) ) ;
#23 = VECTOR ( 'NONE', #407, 1000.000000000000114 ) ;
#24 = DIRECTION ( 'NONE',  ( 0.8735003820734447144, 0.000000000000000000, 0.4868234613466632110 ) ) ;
#25 = PLANE ( 'NONE',  #200 ) ;
#26 = EDGE_CURVE ( 'NONE', #71, #302, #254, .T. ) ;
#27 = PRESENTATION_LAYER_ASSIGNMENT (  '', '', ( #386 ) ) ;
#28 = CARTESIAN_POINT ( 'NONE',  ( 0.000000000000000000, 0.000000000000000000, 0.000000000000000000 ) ) ;
#29 = VECTOR ( 'NONE', #62, 1000.000000000000000 ) ;
#30 = CARTESIAN_POINT ( 'NONE',  ( 2.017262722909376915, 1.199999999999999734, 1.124270625825284808 ) ) ;
#31 = CARTESIAN_POINT ( 'NONE',  ( 0.000000000000000000, 0.000000000000000000, 0.000000000000000000 ) ) ;
#32 = VECTOR ( 'NONE', #252, 1000.000000000000000 ) ;
#33 = DIRECTION ( 'NONE',  ( 0.8583516757212042991, 0.000000000000000000, -0.5130617904176850708 ) ) ;
#34 = DIRECTION ( 'NONE',  ( -0.01514870635224040488, 0.000000000000000000, -0.9998852517643479487 ) ) ;
#35 = CARTESIAN_POINT ( 'NONE',  ( 2.017262722909376915, 3.499999999999999556, 1.124270625825284808 ) ) ;
#36 = DIRECTION ( 'NONE',  ( 0.000000000000000000, 0.000000000000000000, -1.000000000000000000 ) ) ;
#37 = ORIENTED_EDGE ( 'NONE', *, *, #59, .F. ) ;
#38 = CARTESIAN_POINT ( 'NONE',  ( 0.03498443876136236863, 1.199999999999999734, 2.309136077059532166 ) ) ;
#39 = LINE ( 'NONE', #231, #336 ) ;
#40 = ORIENTED_EDGE ( 'NONE', *, *, #41, .T. ) ;
#41 = EDGE_CURVE ( 'NONE', #212, #341, #143, .T. ) ;
#42 = CARTESIAN_POINT ( 'NONE',  ( 0.000000000000000000, 0.000000000000000000, 0.000000000000000000 ) ) ;
#43 = ORIENTED_EDGE ( 'NONE', *, *, #7, .T. ) ;
#44 = VECTOR ( 'NONE', #296, 1000.000000000000114 ) ;
#45 = ORIENTED_EDGE ( 'NONE', *, *, #391, .T. ) ;
#46 = TOROIDAL_SURFACE ( 'NONE', #278, 1.402777777777778789, 3.847222222222221877 ) ;
#47 = VECTOR ( 'NONE', #34, 1000.000000000000227 ) ;
#48 = FACE_OUTER_BOUND ( 'NONE', #233, .T. ) ;
#49 = ORIENTED_EDGE ( 'NONE', *, *, #120, .F. ) ;
#50 = EDGE_CURVE ( 'NONE', #302, #61, #247, .T. ) ;
#51 = CARTESIAN_POINT ( 'NONE',  ( 0.000000000000000000, 0.000000000000000000, -3.000000000000000000 ) ) ;
#52 = CARTESIAN_POINT ( 'NONE',  ( 0.000000000000000000, 3.499999999999999556, 0.000000000000000000 ) ) ;
#53 = CARTESIAN_POINT ( 'NONE',  ( 1.982278284148014658, 1.199999999999999734, -1.184865451234247136 ) ) ;
#54 = CARTESIAN_POINT ( 'NONE',  ( 0.000000000000000000, 1.199999999999999734, 0.000000000000000000 ) ) ;
#55 = CIRCLE ( 'NONE', #290, 3.847222222222221877 ) ;
#56 = CARTESIAN_POINT ( 'NONE',  ( 1.982278284148014658, 1.199999999999999734, -1.184865451234247136 ) ) ;
#57 = FACE_OUTER_BOUND ( 'NONE', #321, .T. ) ;
#58 = ORIENTED_EDGE ( 'NONE', *, *, #324, .F. ) ;
#59 = EDGE_CURVE ( 'NONE', #212, #360, #207, .T. ) ;
#60 = DIRECTION ( 'NONE',  ( 0.000000000000000000, 0.000000000000000000, -1.000000000000000000 ) ) ;
#61 = VERTEX_POINT ( 'NONE', #82 ) ;
#62 = DIRECTION ( 'NONE',  ( -0.000000000000000000, 1.000000000000000000, -0.000000000000000000 ) ) ;
#63 = LINE ( 'NONE', #30, #47 ) ;
#64 = VERTEX_POINT ( 'NONE', #238 ) ;
#65 = DIRECTION ( 'NONE',  ( -0.000000000000000000, -1.000000000000000000, -0.000000000000000000 ) ) ;
#66 = ORIENTED_EDGE ( 'NONE', *, *, #406, .F. ) ;
#67 = LINE ( 'NONE', #38, #300 ) ;
#68 = EDGE_CURVE ( 'NONE', #227, #256, #168, .T. ) ;
#69 = CARTESIAN_POINT ( 'NONE',  ( -0.03498443876136195230, 3.499999999999999556, -2.309136077059532166 ) ) ;
#70 = VECTOR ( 'NONE', #405, 1000.000000000000000 ) ;
#71 = VERTEX_POINT ( 'NONE', #340 ) ;
#72 = CARTESIAN_POINT ( 'NONE',  ( -0.03498443876136195230, 3.499999999999999556, -2.309136077059532166 ) ) ;
#73 = ORIENTED_EDGE ( 'NONE', *, *, #324, .T. ) ;
#74 = ADVANCED_BREP_SHAPE_REPRESENTATION ( 'A796 \X2\04120438043d0442\X0\ \X2\0442043e0440044604350432043e0439\X0\ \X2\041c\X0\6 \X2\0445\X0\ 20', ( #414, #239 ), #388 ) ;
#75 = ORIENTED_EDGE ( 'NONE', *, *, #399, .T. ) ;
#76 = PRODUCT_CONTEXT ( 'NONE', #223, 'mechanical' ) ;
#77 =( GEOMETRIC_REPRESENTATION_CONTEXT ( 3 ) GLOBAL_UNCERTAINTY_ASSIGNED_CONTEXT ( ( #12 ) ) GLOBAL_UNIT_ASSIGNED_CONTEXT ( ( #192, #293, #261 ) ) REPRESENTATION_CONTEXT ( 'NONE', 'WORKASPACE' ) );
#78 = DIRECTION ( 'NONE',  ( -0.000000000000000000, -1.000000000000000000, -0.000000000000000000 ) ) ;
#79 = AXIS2_PLACEMENT_3D ( 'NONE', #311, #317, #8 ) ;
#80 = EDGE_LOOP ( 'NONE', ( #13, #217, #193, #198 ) ) ;
#81 = DIRECTION ( 'NONE',  ( 0.000000000000000000, 0.000000000000000000, -1.000000000000000000 ) ) ;
#82 = CARTESIAN_POINT ( 'NONE',  ( 6.429395695523605139E-16, 0.000000000000000000, 5.250000000000000888 ) ) ;
#83 = DIRECTION ( 'NONE',  ( 0.000000000000000000, 0.000000000000000000, -1.000000000000000000 ) ) ;
#84 = DIRECTION ( 'NONE',  ( -1.224646799147353207E-16, 0.000000000000000000, -1.000000000000000000 ) ) ;
#85 = PLANE ( 'NONE',  #316 ) ;
#86 = CIRCLE ( 'NONE', #158, 5.250000000000000888 ) ;
#87 = DIRECTION ( 'NONE',  ( 0.000000000000000000, -0.000000000000000000, 1.000000000000000000 ) ) ;
#88 = ORIENTED_EDGE ( 'NONE', *, *, #264, .T. ) ;
#89 = EDGE_LOOP ( 'NONE', ( #346, #58, #397, #149 ) ) ;
#90 = CARTESIAN_POINT ( 'NONE',  ( -2.017262722909376915, 1.199999999999999734, -1.124270625825284142 ) ) ;
#91 = ORIENTED_EDGE ( 'NONE', *, *, #412, .T. ) ;
#92 = EDGE_CURVE ( 'NONE', #101, #172, #371, .T. ) ;
#93 = CARTESIAN_POINT ( 'NONE',  ( -2.017262722909376471, 3.499999999999999556, -1.124270625825283920 ) ) ;
#94 = ORIENTED_EDGE ( 'NONE', *, *, #232, .F. ) ;
#95 = LINE ( 'NONE', #218, #103 ) ;
#96 = ORIENTED_EDGE ( 'NONE', *, *, #285, .F. ) ;
#97 = VECTOR ( 'NONE', #367, 1000.000000000000000 ) ;
#98 = FILL_AREA_STYLE ('',( #320 ) ) ;
#99 = ORIENTED_EDGE ( 'NONE', *, *, #222, .T. ) ;
#100 = CARTESIAN_POINT ( 'NONE',  ( 0.000000000000000000, -19.80000000000000071, 0.000000000000000000 ) ) ;
#101 = VERTEX_POINT ( 'NONE', #268 ) ;
#102 = CYLINDRICAL_SURFACE ( 'NONE', #191, 3.000000000000001332 ) ;
#103 = VECTOR ( 'NONE', #33, 1000.000000000000000 ) ;
#104 = ORIENTED_EDGE ( 'NONE', *, *, #92, .T. ) ;
#105 = SURFACE_STYLE_USAGE ( .BOTH. , #130 ) ;
#106 = CARTESIAN_POINT ( 'NONE',  ( -2.017262722909376915, 1.199999999999999734, -1.124270625825284142 ) ) ;
#107 = DIRECTION ( 'NONE',  ( 1.000000000000000000, 0.000000000000000000, 0.000000000000000000 ) ) ;
#108 = CYLINDRICAL_SURFACE ( 'NONE', #204, 3.000000000000001332 ) ;
#109 = ORIENTED_EDGE ( 'NONE', *, *, #26, .T. ) ;
#110 = CARTESIAN_POINT ( 'NONE',  ( 0.000000000000000000, 0.000000000000000000, 0.000000000000000000 ) ) ;
#111 = CARTESIAN_POINT ( 'NONE',  ( 0.000000000000000000, 0.000000000000000000, -5.250000000000000888 ) ) ;
#112 = EDGE_CURVE ( 'NONE', #131, #253, #118, .T. ) ;
#113 = DIRECTION ( 'NONE',  ( 0.8583516757212042991, 0.000000000000000000, -0.5130617904176850708 ) ) ;
#114 = CARTESIAN_POINT ( 'NONE',  ( 2.017262722909376915, 3.499999999999999556, 1.124270625825284808 ) ) ;
#115 = ADVANCED_FACE ( 'NONE', ( #202 ), #25, .T. ) ;
#116 = CARTESIAN_POINT ( 'NONE',  ( 1.717907315470593971E-16, 0.000000000000000000, 1.402777777777778789 ) ) ;
#117 = EDGE_CURVE ( 'NONE', #302, #71, #176, .T. ) ;
#118 = LINE ( 'NONE', #402, #70 ) ;
#119 = DIRECTION ( 'NONE',  ( -0.01514870635224040314, 0.000000000000000000, -0.9998852517643479487 ) ) ;
#120 = EDGE_CURVE ( 'NONE', #270, #64, #142, .T. ) ;
#121 = DIRECTION ( 'NONE',  ( 0.9998852517643480597, 0.000000000000000000, -0.01514870635224040488 ) ) ;
#122 = ORIENTED_EDGE ( 'NONE', *, *, #384, .T. ) ;
#123 = VECTOR ( 'NONE', #124, 1000.000000000000000 ) ;
#124 = DIRECTION ( 'NONE',  ( -0.000000000000000000, 1.000000000000000000, -0.000000000000000000 ) ) ;
#125 = PLANE ( 'NONE',  #411 ) ;
#126 = ORIENTED_EDGE ( 'NONE', *, *, #186, .T. ) ;
#127 = DIRECTION ( 'NONE',  ( -1.000000000000000000, 0.000000000000000000, 0.000000000000000000 ) ) ;
#128 = PLANE ( 'NONE',  #375 ) ;
#129 = VERTEX_POINT ( 'NONE', #114 ) ;
#130 = SURFACE_SIDE_STYLE ('',( #10 ) ) ;
#131 = VERTEX_POINT ( 'NONE', #53 ) ;
#132 = LINE ( 'NONE', #17, #184 ) ;
#133 = VERTEX_POINT ( 'NONE', #111 ) ;
#134 = ADVANCED_FACE ( 'NONE', ( #201 ), #46, .T. ) ;
#135 = PRODUCT_DEFINITION_CONTEXT ( 'detailed design', #271, 'design' ) ;
#136 = PRESENTATION_STYLE_ASSIGNMENT (( #105 ) ) ;
#137 = AXIS2_PLACEMENT_3D ( 'NONE', #42, #257, #194 ) ;
#138 = CARTESIAN_POINT ( 'NONE',  ( 0.000000000000000000, 0.000000000000000000, -1.402777777777778789 ) ) ;
#139 = FACE_OUTER_BOUND ( 'NONE', #292, .T. ) ;
#140 = FACE_OUTER_BOUND ( 'NONE', #297, .T. ) ;
#141 = CARTESIAN_POINT ( 'NONE',  ( 0.000000000000000000, -19.80000000000000071, 0.000000000000000000 ) ) ;
#142 = LINE ( 'NONE', #306, #4 ) ;
#143 = LINE ( 'NONE', #338, #23 ) ;
#144 = DIRECTION ( 'NONE',  ( 0.8735003820734447144, 0.000000000000000000, 0.4868234613466632110 ) ) ;
#145 = DIRECTION ( 'NONE',  ( 0.000000000000000000, 0.000000000000000000, 1.000000000000000000 ) ) ;
#146 = FACE_OUTER_BOUND ( 'NONE', #314, .T. ) ;
#147 = VECTOR ( 'NONE', #335, 1000.000000000000000 ) ;
#148 = FACE_BOUND ( 'NONE', #181, .T. ) ;
#149 = ORIENTED_EDGE ( 'NONE', *, *, #3, .T. ) ;
#150 = LINE ( 'NONE', #342, #351 ) ;
#151 = ORIENTED_EDGE ( 'NONE', *, *, #68, .T. ) ;
#152 = CIRCLE ( 'NONE', #21, 3.000000000000002665 ) ;
#153 = PRODUCT_DEFINITION_FORMATION_WITH_SPECIFIED_SOURCE ( 'ANY', '', #277, .NOT_KNOWN. ) ;
#154 = PLANE ( 'NONE',  #79 ) ;
#155 = ORIENTED_EDGE ( 'NONE', *, *, #259, .F. ) ;
#156 = CARTESIAN_POINT ( 'NONE',  ( -1.982278284148014658, 3.499999999999999556, 1.184865451234246914 ) ) ;
#157 = DIRECTION ( 'NONE',  ( -0.01514870635224040488, 0.000000000000000000, -0.9998852517643479487 ) ) ;
#158 = AXIS2_PLACEMENT_3D ( 'NONE', #182, #214, #385 ) ;
#159 = DIRECTION ( 'NONE',  ( -0.000000000000000000, 1.000000000000000000, -0.000000000000000000 ) ) ;
#160 = ORIENTED_EDGE ( 'NONE', *, *, #186, .F. ) ;
#161 = CLOSED_SHELL ( 'NONE', ( #134, #381, #350, #404, #16, #337, #318, #173, #309, #240, #179, #229, #213, #115 ) ) ;
#162 = ORIENTED_EDGE ( 'NONE', *, *, #68, .F. ) ;
#163 = DIRECTION ( 'NONE',  ( 0.000000000000000000, 0.000000000000000000, -1.000000000000000000 ) ) ;
#164 = ORIENTED_EDGE ( 'NONE', *, *, #369, .F. ) ;
#165 = LINE ( 'NONE', #355, #328 ) ;
#166 = TOROIDAL_SURFACE ( 'NONE', #408, 1.402777777777778789, 3.847222222222221877 ) ;
#167 = ORIENTED_EDGE ( 'NONE', *, *, #92, .F. ) ;
#168 = CIRCLE ( 'NONE', #389, 3.000000000000002665 ) ;
#169 = AXIS2_PLACEMENT_3D ( 'NONE', #28, #345, #60 ) ;
#170 = ORIENTED_EDGE ( 'NONE', *, *, #117, .F. ) ;
#171 = DIRECTION ( 'NONE',  ( 0.000000000000000000, 1.000000000000000000, -0.000000000000000000 ) ) ;
#172 = VERTEX_POINT ( 'NONE', #275 ) ;
#173 = ADVANCED_FACE ( 'NONE', ( #48 ), #303, .F. ) ;
#174 = PLANE ( 'NONE',  #265 ) ;
#175 = EDGE_LOOP ( 'NONE', ( #109, #215, #6, #327 ) ) ;
#176 = CIRCLE ( 'NONE', #219, 3.000000000000000000 ) ;
#177 = DIRECTION ( 'NONE',  ( -0.5130617904176852928, 0.000000000000000000, -0.8583516757212041881 ) ) ;
#178 = CARTESIAN_POINT ( 'NONE',  ( 0.000000000000000000, 3.499999999999999556, 0.000000000000000000 ) ) ;
#179 = ADVANCED_FACE ( 'NONE', ( #19 ), #20, .F. ) ;
#180 = DIRECTION ( 'NONE',  ( 0.4868234613466631000, 0.000000000000000000, -0.8735003820734448254 ) ) ;
#181 = EDGE_LOOP ( 'NONE', ( #394, #374, #66, #366, #49, #96 ) ) ;
#182 = CARTESIAN_POINT ( 'NONE',  ( 0.000000000000000000, 0.000000000000000000, 0.000000000000000000 ) ) ;
#183 = FACE_OUTER_BOUND ( 'NONE', #80, .T. ) ;
#184 = VECTOR ( 'NONE', #65, 1000.000000000000000 ) ;
#185 = CARTESIAN_POINT ( 'NONE',  ( 0.000000000000000000, -19.80000000000000071, -3.000000000000002665 ) ) ;
#186 = EDGE_CURVE ( 'NONE', #267, #256, #236, .T. ) ;
#187 = DIRECTION ( 'NONE',  ( 0.000000000000000000, 0.000000000000000000, -1.000000000000000000 ) ) ;
#188 = DIRECTION ( 'NONE',  ( 0.000000000000000000, 0.000000000000000000, -1.000000000000000000 ) ) ;
#189 = ORIENTED_EDGE ( 'NONE', *, *, #112, .F. ) ;
#190 = PRODUCT_DEFINITION ( 'UNKNOWN', '', #153, #135 ) ;
#191 = AXIS2_PLACEMENT_3D ( 'NONE', #400, #326, #36 ) ;
#192 =( LENGTH_UNIT ( ) NAMED_UNIT ( * ) SI_UNIT ( .MILLI., .METRE. ) );
#193 = ORIENTED_EDGE ( 'NONE', *, *, #283, .T. ) ;
#194 = DIRECTION ( 'NONE',  ( 0.000000000000000000, 0.000000000000000000, -1.000000000000000000 ) ) ;
#195 = ORIENTED_EDGE ( 'NONE', *, *, #112, .T. ) ;
#196 = DIRECTION ( 'NONE',  ( 0.000000000000000000, 0.000000000000000000, 1.000000000000000000 ) ) ;
#197 = CARTESIAN_POINT ( 'NONE',  ( -2.017262722909376915, 1.199999999999999734, -1.124270625825284142 ) ) ;
#198 = ORIENTED_EDGE ( 'NONE', *, *, #287, .F. ) ;
#199 = VERTEX_POINT ( 'NONE', #51 ) ;
#200 = AXIS2_PLACEMENT_3D ( 'NONE', #54, #171, #145 ) ;
#201 = FACE_OUTER_BOUND ( 'NONE', #175, .T. ) ;
#202 = FACE_OUTER_BOUND ( 'NONE', #330, .T. ) ;
#203 = EDGE_CURVE ( 'NONE', #341, #289, #305, .T. ) ;
#204 = AXIS2_PLACEMENT_3D ( 'NONE', #365, #291, #163 ) ;
#205 = DIRECTION ( 'NONE',  ( -0.000000000000000000, -1.000000000000000000, -0.000000000000000000 ) ) ;
#206 = CARTESIAN_POINT ( 'NONE',  ( -0.03498443876136195230, 1.199999999999999734, -2.309136077059532166 ) ) ;
#207 = LINE ( 'NONE', #235, #97 ) ;
#208 = EDGE_LOOP ( 'NONE', ( #357, #170 ) ) ;
#209 = DIRECTION ( 'NONE',  ( 0.01514870635224041355, 0.000000000000000000, 0.9998852517643479487 ) ) ;
#210 = CIRCLE ( 'NONE', #137, 5.250000000000000888 ) ;
#211 = LINE ( 'NONE', #1, #123 ) ;
#212 = VERTEX_POINT ( 'NONE', #244 ) ;
#213 = ADVANCED_FACE ( 'NONE', ( #286 ), #154, .F. ) ;
#214 = DIRECTION ( 'NONE',  ( -0.000000000000000000, -1.000000000000000000, -0.000000000000000000 ) ) ;
#215 = ORIENTED_EDGE ( 'NONE', *, *, #50, .T. ) ;
#216 = LINE ( 'NONE', #349, #312 ) ;
#217 = ORIENTED_EDGE ( 'NONE', *, *, #117, .T. ) ;
#218 = CARTESIAN_POINT ( 'NONE',  ( 0.03498443876136236863, 3.499999999999999556, 2.309136077059532166 ) ) ;
#219 = AXIS2_PLACEMENT_3D ( 'NONE', #178, #205, #339 ) ;
#220 = DIRECTION ( 'NONE',  ( -0.000000000000000000, -1.000000000000000000, -0.000000000000000000 ) ) ;
#221 = ORIENTED_EDGE ( 'NONE', *, *, #59, .T. ) ;
#222 = EDGE_CURVE ( 'NONE', #253, #360, #216, .T. ) ;
#223 = APPLICATION_CONTEXT ( 'automotive_design' ) ;
#224 = LINE ( 'NONE', #35, #304 ) ;
#225 = ORIENTED_EDGE ( 'NONE', *, *, #369, .T. ) ;
#226 = FACE_OUTER_BOUND ( 'NONE', #356, .T. ) ;
#227 = VERTEX_POINT ( 'NONE', #185 ) ;
#228 = AXIS2_PLACEMENT_3D ( 'NONE', #206, #177, #409 ) ;
#229 = ADVANCED_FACE ( 'NONE', ( #57 ), #413, .F. ) ;
#230 = ORIENTED_EDGE ( 'NONE', *, *, #285, .T. ) ;
#231 = CARTESIAN_POINT ( 'NONE',  ( -1.982278284148014658, 1.199999999999999734, 1.184865451234246914 ) ) ;
#232 = EDGE_CURVE ( 'NONE', #199, #267, #354, .T. ) ;
#233 = EDGE_LOOP ( 'NONE', ( #122, #11, #15, #221 ) ) ;
#234 = AXIS2_PLACEMENT_3D ( 'NONE', #31, #242, #347 ) ;
#235 = CARTESIAN_POINT ( 'NONE',  ( -0.03498443876136195230, 1.199999999999999734, -2.309136077059532166 ) ) ;
#236 = LINE ( 'NONE', #368, #147 ) ;
#237 = DIRECTION ( 'NONE',  ( 0.000000000000000000, 0.000000000000000000, -1.000000000000000000 ) ) ;
#238 = CARTESIAN_POINT ( 'NONE',  ( 0.03498443876136236863, 3.499999999999999556, 2.309136077059532166 ) ) ;
#239 = AXIS2_PLACEMENT_3D ( 'NONE', #110, #196, #107 ) ;
#240 = ADVANCED_FACE ( 'NONE', ( #146 ), #125, .F. ) ;
#241 = DIRECTION ( 'NONE',  ( 0.000000000000000000, -1.000000000000000000, -0.000000000000000000 ) ) ;
#242 = DIRECTION ( 'NONE',  ( -0.000000000000000000, -1.000000000000000000, -0.000000000000000000 ) ) ;
#243 = ORIENTED_EDGE ( 'NONE', *, *, #406, .T. ) ;
#244 = CARTESIAN_POINT ( 'NONE',  ( -0.03498443876136195230, 1.199999999999999734, -2.309136077059532166 ) ) ;
#245 = CARTESIAN_POINT ( 'NONE',  ( 3.673940397442059868E-16, 0.000000000000000000, 3.000000000000000000 ) ) ;
#246 = ORIENTED_EDGE ( 'NONE', *, *, #399, .F. ) ;
#247 = CIRCLE ( 'NONE', #353, 3.847222222222221877 ) ;
#248 = DIRECTION ( 'NONE',  ( -0.8735003820734447144, 0.000000000000000000, -0.4868234613466631000 ) ) ;
#249 = ORIENTED_EDGE ( 'NONE', *, *, #395, .T. ) ;
#250 = CARTESIAN_POINT ( 'NONE',  ( -1.982278284148014658, 1.199999999999999734, 1.184865451234246914 ) ) ;
#251 = MECHANICAL_DESIGN_GEOMETRIC_PRESENTATION_REPRESENTATION (  '', ( #386 ), #77 ) ;
#252 = DIRECTION ( 'NONE',  ( 0.8583516757212042991, 0.000000000000000000, -0.5130617904176850708 ) ) ;
#253 = VERTEX_POINT ( 'NONE', #279 ) ;
#254 = CIRCLE ( 'NONE', #377, 3.000000000000000000 ) ;
#255 = CARTESIAN_POINT ( 'NONE',  ( 0.000000000000000000, -19.80000000000000071, -3.000000000000002665 ) ) ;
#256 = VERTEX_POINT ( 'NONE', #382 ) ;
#257 = DIRECTION ( 'NONE',  ( -0.000000000000000000, -1.000000000000000000, -0.000000000000000000 ) ) ;
#258 = ORIENTED_EDGE ( 'NONE', *, *, #264, .F. ) ;
#259 = EDGE_CURVE ( 'NONE', #383, #131, #63, .T. ) ;
#260 = COLOUR_RGB ( '',0.4078431372549019551, 0.4196078431372549100, 0.4313725490196078649 ) ;
#261 =( NAMED_UNIT ( * ) SI_UNIT ( $, .STERADIAN. ) SOLID_ANGLE_UNIT ( ) );
#262 = DIRECTION ( 'NONE',  ( -0.000000000000000000, 1.000000000000000000, -0.000000000000000000 ) ) ;
#263 =( NAMED_UNIT ( * ) SI_UNIT ( $, .STERADIAN. ) SOLID_ANGLE_UNIT ( ) );
#264 = EDGE_CURVE ( 'NONE', #267, #199, #9, .T. ) ;
#265 = AXIS2_PLACEMENT_3D ( 'NONE', #22, #241, #372 ) ;
#266 = CARTESIAN_POINT ( 'NONE',  ( 0.000000000000000000, 0.000000000000000000, 0.000000000000000000 ) ) ;
#267 = VERTEX_POINT ( 'NONE', #245 ) ;
#268 = CARTESIAN_POINT ( 'NONE',  ( -1.982278284148014658, 1.199999999999999734, 1.184865451234246914 ) ) ;
#269 = DIRECTION ( 'NONE',  ( 0.5130617904176850708, 0.000000000000000000, 0.8583516757212042991 ) ) ;
#270 = VERTEX_POINT ( 'NONE', #156 ) ;
#271 = APPLICATION_CONTEXT ( 'automotive_design' ) ;
#272 = VECTOR ( 'NONE', #18, 1000.000000000000227 ) ;
#273 = CARTESIAN_POINT ( 'NONE',  ( -1.982278284148014658, 1.199999999999999734, 1.184865451234246914 ) ) ;
#274 = DIRECTION ( 'NONE',  ( -0.000000000000000000, -1.000000000000000000, -0.000000000000000000 ) ) ;
#275 = CARTESIAN_POINT ( 'NONE',  ( 0.03498443876136236863, 1.199999999999999734, 2.309136077059532166 ) ) ;
#276 = ORIENTED_EDGE ( 'NONE', *, *, #203, .T. ) ;
#277 = PRODUCT ( 'A796 \X2\04120438043d0442\X0\ \X2\0442043e0440044604350432043e0439\X0\ \X2\041c\X0\6 \X2\0445\X0\ 20', 'A796 \X2\04120438043d0442\X0\ \X2\0442043e0440044604350432043e0439\X0\ \X2\041c\X0\6 \X2\0445\X0\ 20', '', ( #76 ) ) ;
#278 = AXIS2_PLACEMENT_3D ( 'NONE', #332, #308, #83 ) ;
#279 = CARTESIAN_POINT ( 'NONE',  ( 1.982278284148014658, 3.499999999999999556, -1.184865451234247136 ) ) ;
#280 = FACE_OUTER_BOUND ( 'NONE', #208, .T. ) ;
#281 = EDGE_LOOP ( 'NONE', ( #151, #75 ) ) ;
#282 = PLANE ( 'NONE',  #310 ) ;
#283 = EDGE_CURVE ( 'NONE', #71, #133, #55, .T. ) ;
#284 = DIRECTION ( 'NONE',  ( -0.4868234613466632110, 0.000000000000000000, 0.8735003820734447144 ) ) ;
#285 = EDGE_CURVE ( 'NONE', #289, #270, #150, .T. ) ;
#286 = FACE_OUTER_BOUND ( 'NONE', #348, .T. ) ;
#287 = EDGE_CURVE ( 'NONE', #61, #133, #86, .T. ) ;
#288 = LINE ( 'NONE', #396, #32 ) ;
#289 = VERTEX_POINT ( 'NONE', #93 ) ;
#290 = AXIS2_PLACEMENT_3D ( 'NONE', #138, #127, #315 ) ;
#291 = DIRECTION ( 'NONE',  ( -0.000000000000000000, -1.000000000000000000, -0.000000000000000000 ) ) ;
#292 = EDGE_LOOP ( 'NONE', ( #160, #88, #390, #246 ) ) ;
#293 =( NAMED_UNIT ( * ) PLANE_ANGLE_UNIT ( ) SI_UNIT ( $, .RADIAN. ) );
#294 = ORIENTED_EDGE ( 'NONE', *, *, #395, .F. ) ;
#295 = SHAPE_DEFINITION_REPRESENTATION ( #334, #74 ) ;
#296 = DIRECTION ( 'NONE',  ( -0.8583516757212041881, 0.000000000000000000, 0.5130617904176852928 ) ) ;
#297 = EDGE_LOOP ( 'NONE', ( #45, #380 ) ) ;
#298 = DIRECTION ( 'NONE',  ( 0.000000000000000000, 0.000000000000000000, -1.000000000000000000 ) ) ;
#299 = ORIENTED_EDGE ( 'NONE', *, *, #3, .F. ) ;
#300 = VECTOR ( 'NONE', #262, 1000.000000000000000 ) ;
#301 =( NAMED_UNIT ( * ) PLANE_ANGLE_UNIT ( ) SI_UNIT ( $, .RADIAN. ) );
#302 = VERTEX_POINT ( 'NONE', #373 ) ;
#303 = PLANE ( 'NONE',  #228 ) ;
#304 = VECTOR ( 'NONE', #157, 1000.000000000000227 ) ;
#305 = LINE ( 'NONE', #90, #29 ) ;
#306 = CARTESIAN_POINT ( 'NONE',  ( -1.982278284148014658, 3.499999999999999556, 1.184865451234246914 ) ) ;
#307 = EDGE_CURVE ( 'NONE', #64, #129, #95, .T. ) ;
#308 = DIRECTION ( 'NONE',  ( -0.000000000000000000, -1.000000000000000000, -0.000000000000000000 ) ) ;
#309 = ADVANCED_FACE ( 'NONE', ( #376 ), #85, .F. ) ;
#310 = AXIS2_PLACEMENT_3D ( 'NONE', #5, #378, #87 ) ;
#311 = CARTESIAN_POINT ( 'NONE',  ( -2.017262722909376915, 1.199999999999999734, -1.124270625825284142 ) ) ;
#312 = VECTOR ( 'NONE', #248, 1000.000000000000114 ) ;
#313 = CARTESIAN_POINT ( 'NONE',  ( 2.017262722909376915, 1.199999999999999734, 1.124270625825284808 ) ) ;
#314 = EDGE_LOOP ( 'NONE', ( #243, #189, #155, #73 ) ) ;
#315 = DIRECTION ( 'NONE',  ( 0.000000000000000000, 0.000000000000000000, 1.000000000000000000 ) ) ;
#316 = AXIS2_PLACEMENT_3D ( 'NONE', #56, #180, #415 ) ;
#317 = DIRECTION ( 'NONE',  ( -0.9998852517643480597, 0.000000000000000000, 0.01514870635224041528 ) ) ;
#318 = ADVANCED_FACE ( 'NONE', ( #148, #280 ), #282, .T. ) ;
#319 = CARTESIAN_POINT ( 'NONE',  ( 2.017262722909376915, 1.199999999999999734, 1.124270625825284808 ) ) ;
#320 = FILL_AREA_STYLE_COLOUR ( '', #260 ) ;
#321 = EDGE_LOOP ( 'NONE', ( #325, #299, #167, #249 ) ) ;
#322 = ORIENTED_EDGE ( 'NONE', *, *, #259, .T. ) ;
#323 = LINE ( 'NONE', #69, #44 ) ;
#324 = EDGE_CURVE ( 'NONE', #383, #129, #211, .T. ) ;
#325 = ORIENTED_EDGE ( 'NONE', *, *, #120, .T. ) ;
#326 = DIRECTION ( 'NONE',  ( -0.000000000000000000, -1.000000000000000000, -0.000000000000000000 ) ) ;
#327 = ORIENTED_EDGE ( 'NONE', *, *, #283, .F. ) ;
#328 = VECTOR ( 'NONE', #393, 1000.000000000000114 ) ;
#329 =( LENGTH_UNIT ( ) NAMED_UNIT ( * ) SI_UNIT ( .MILLI., .METRE. ) );
#330 = EDGE_LOOP ( 'NONE', ( #40, #43, #104, #91, #322, #225 ) ) ;
#331 = AXIS2_PLACEMENT_3D ( 'NONE', #403, #269, #113 ) ;
#332 = CARTESIAN_POINT ( 'NONE',  ( 0.000000000000000000, 0.000000000000000000, 0.000000000000000000 ) ) ;
#333 = EDGE_LOOP ( 'NONE', ( #99, #37, #164, #195 ) ) ;
#334 = PRODUCT_DEFINITION_SHAPE ( 'NONE', 'NONE',  #190 ) ;
#335 = DIRECTION ( 'NONE',  ( -0.000000000000000000, -1.000000000000000000, -0.000000000000000000 ) ) ;
#336 = VECTOR ( 'NONE', #159, 1000.000000000000000 ) ;
#337 = ADVANCED_FACE ( 'NONE', ( #183 ), #166, .T. ) ;
#338 = CARTESIAN_POINT ( 'NONE',  ( -0.03498443876136195230, 1.199999999999999734, -2.309136077059532166 ) ) ;
#339 = DIRECTION ( 'NONE',  ( 0.000000000000000000, 0.000000000000000000, -1.000000000000000000 ) ) ;
#340 = CARTESIAN_POINT ( 'NONE',  ( 0.000000000000000000, 3.499999999999999556, -3.000000000000000000 ) ) ;
#341 = VERTEX_POINT ( 'NONE', #197 ) ;
#342 = CARTESIAN_POINT ( 'NONE',  ( -2.017262722909376915, 3.499999999999999556, -1.124270625825284142 ) ) ;
#343 = ORIENTED_EDGE ( 'NONE', *, *, #232, .T. ) ;
#344 = PRODUCT_RELATED_PRODUCT_CATEGORY ( 'part', '', ( #277 ) ) ;
#345 = DIRECTION ( 'NONE',  ( -0.000000000000000000, -1.000000000000000000, -0.000000000000000000 ) ) ;
#346 = ORIENTED_EDGE ( 'NONE', *, *, #307, .T. ) ;
#347 = DIRECTION ( 'NONE',  ( 0.000000000000000000, 0.000000000000000000, -1.000000000000000000 ) ) ;
#348 = EDGE_LOOP ( 'NONE', ( #230, #294, #387, #276 ) ) ;
#349 = CARTESIAN_POINT ( 'NONE',  ( 1.982278284148014658, 3.499999999999999556, -1.184865451234247136 ) ) ;
#350 = ADVANCED_FACE ( 'NONE', ( #361 ), #128, .T. ) ;
#351 = VECTOR ( 'NONE', #209, 1000.000000000000227 ) ;
#352 = DIRECTION ( 'NONE',  ( 0.8735003820734447144, 0.000000000000000000, 0.4868234613466632110 ) ) ;
#353 = AXIS2_PLACEMENT_3D ( 'NONE', #116, #370, #84 ) ;
#354 = CIRCLE ( 'NONE', #169, 3.000000000000000000 ) ;
#355 = CARTESIAN_POINT ( 'NONE',  ( 1.982278284148014658, 1.199999999999999734, -1.184865451234247136 ) ) ;
#356 = EDGE_LOOP ( 'NONE', ( #343, #126, #162, #363 ) ) ;
#357 = ORIENTED_EDGE ( 'NONE', *, *, #26, .F. ) ;
#358 = APPLICATION_PROTOCOL_DEFINITION ( 'draft international standard', 'automotive_design', 1998, #223 ) ;
#359 = DIRECTION ( 'NONE',  ( 0.000000000000000000, -1.000000000000000000, -0.000000000000000000 ) ) ;
#360 = VERTEX_POINT ( 'NONE', #72 ) ;
#361 = FACE_OUTER_BOUND ( 'NONE', #281, .T. ) ;
#362 = EDGE_CURVE ( 'NONE', #199, #227, #132, .T. ) ;
#363 = ORIENTED_EDGE ( 'NONE', *, *, #362, .F. ) ;
#364 = APPLICATION_PROTOCOL_DEFINITION ( 'draft international standard', 'automotive_design', 1998, #271 ) ;
#365 = CARTESIAN_POINT ( 'NONE',  ( 0.000000000000000000, -25.89743835057741350, 0.000000000000000000 ) ) ;
#366 = ORIENTED_EDGE ( 'NONE', *, *, #307, .F. ) ;
#367 = DIRECTION ( 'NONE',  ( -0.000000000000000000, 1.000000000000000000, -0.000000000000000000 ) ) ;
#368 = CARTESIAN_POINT ( 'NONE',  ( 3.673940397442061347E-16, -25.89743835057741350, 3.000000000000001332 ) ) ;
#369 = EDGE_CURVE ( 'NONE', #131, #212, #165, .T. ) ;
#370 = DIRECTION ( 'NONE',  ( 1.000000000000000000, 0.000000000000000000, -1.224646799147353207E-16 ) ) ;
#371 = LINE ( 'NONE', #273, #410 ) ;
#372 = DIRECTION ( 'NONE',  ( 0.000000000000000000, 0.000000000000000000, -1.000000000000000000 ) ) ;
#373 = CARTESIAN_POINT ( 'NONE',  ( 5.051668046482832750E-16, 3.499999999999999556, 3.000000000000000000 ) ) ;
#374 = ORIENTED_EDGE ( 'NONE', *, *, #222, .F. ) ;
#375 = AXIS2_PLACEMENT_3D ( 'NONE', #255, #359, #187 ) ;
#376 = FACE_OUTER_BOUND ( 'NONE', #333, .T. ) ;
#377 = AXIS2_PLACEMENT_3D ( 'NONE', #52, #274, #237 ) ;
#378 = DIRECTION ( 'NONE',  ( 0.000000000000000000, 1.000000000000000000, 0.000000000000000000 ) ) ;
#379 = AXIS2_PLACEMENT_3D ( 'NONE', #250, #284, #352 ) ;
#380 = ORIENTED_EDGE ( 'NONE', *, *, #287, .T. ) ;
#381 = ADVANCED_FACE ( 'NONE', ( #226 ), #102, .T. ) ;
#382 = CARTESIAN_POINT ( 'NONE',  ( 3.673940397442062333E-16, -19.80000000000000071, 3.000000000000002665 ) ) ;
#383 = VERTEX_POINT ( 'NONE', #319 ) ;
#384 = EDGE_CURVE ( 'NONE', #360, #289, #323, .T. ) ;
#385 = DIRECTION ( 'NONE',  ( 0.000000000000000000, 0.000000000000000000, -1.000000000000000000 ) ) ;
#386 = STYLED_ITEM ( 'NONE', ( #136 ), #414 ) ;
#387 = ORIENTED_EDGE ( 'NONE', *, *, #7, .F. ) ;
#388 =( GEOMETRIC_REPRESENTATION_CONTEXT ( 3 ) GLOBAL_UNCERTAINTY_ASSIGNED_CONTEXT ( ( #392 ) ) GLOBAL_UNIT_ASSIGNED_CONTEXT ( ( #329, #301, #263 ) ) REPRESENTATION_CONTEXT ( 'NONE', 'WORKASPACE' ) );
#389 = AXIS2_PLACEMENT_3D ( 'NONE', #141, #78, #81 ) ;
#390 = ORIENTED_EDGE ( 'NONE', *, *, #362, .T. ) ;
#391 = EDGE_CURVE ( 'NONE', #133, #61, #210, .T. ) ;
#392 = UNCERTAINTY_MEASURE_WITH_UNIT (LENGTH_MEASURE( 1.000000000000000082E-05 ), #329, 'distance_accuracy_value', 'NONE');
#393 = DIRECTION ( 'NONE',  ( -0.8735003820734447144, 0.000000000000000000, -0.4868234613466631000 ) ) ;
#394 = ORIENTED_EDGE ( 'NONE', *, *, #384, .F. ) ;
#395 = EDGE_CURVE ( 'NONE', #101, #270, #39, .T. ) ;
#396 = CARTESIAN_POINT ( 'NONE',  ( 0.03498443876136236863, 1.199999999999999734, 2.309136077059532166 ) ) ;
#397 = ORIENTED_EDGE ( 'NONE', *, *, #412, .F. ) ;
#398 = LINE ( 'NONE', #106, #272 ) ;
#399 = EDGE_CURVE ( 'NONE', #256, #227, #152, .T. ) ;
#400 = CARTESIAN_POINT ( 'NONE',  ( 0.000000000000000000, -25.89743835057741350, 0.000000000000000000 ) ) ;
#401 = FACE_BOUND ( 'NONE', #2, .T. ) ;
#402 = CARTESIAN_POINT ( 'NONE',  ( 1.982278284148014658, 1.199999999999999734, -1.184865451234247136 ) ) ;
#403 = CARTESIAN_POINT ( 'NONE',  ( 0.03498443876136236863, 1.199999999999999734, 2.309136077059532166 ) ) ;
#404 = ADVANCED_FACE ( 'NONE', ( #139 ), #108, .T. ) ;
#405 = DIRECTION ( 'NONE',  ( -0.000000000000000000, 1.000000000000000000, -0.000000000000000000 ) ) ;
#406 = EDGE_CURVE ( 'NONE', #129, #253, #224, .T. ) ;
#407 = DIRECTION ( 'NONE',  ( -0.8583516757212041881, 0.000000000000000000, 0.5130617904176852928 ) ) ;
#408 = AXIS2_PLACEMENT_3D ( 'NONE', #266, #14, #188 ) ;
#409 = DIRECTION ( 'NONE',  ( -0.8583516757212041881, 0.000000000000000000, 0.5130617904176852928 ) ) ;
#410 = VECTOR ( 'NONE', #24, 1000.000000000000000 ) ;
#411 = AXIS2_PLACEMENT_3D ( 'NONE', #313, #121, #119 ) ;
#412 = EDGE_CURVE ( 'NONE', #172, #383, #288, .T. ) ;
#413 = PLANE ( 'NONE',  #379 ) ;
#414 = MANIFOLD_SOLID_BREP ( '\X2\0412044b044004350437\X0\-\X2\0412044b0442044f043d04430442044c\X0\1', #161 ) ;
#415 = DIRECTION ( 'NONE',  ( -0.8735003820734447144, 0.000000000000000000, -0.4868234613466630445 ) ) ;
ENDSEC;
END-ISO-10303-21;
