ISO-10303-21;
HEADER;
FILE_DESCRIPTION (( 'STEP AP214' ),
    '1' );
FILE_NAME ('Ñáîðêà2.STEP',
    '2025-02-20T06:44:18',
    ( '' ),
    ( '' ),
    'SwSTEP 2.0',
    'SolidWorks 2025',
    '' );
FILE_SCHEMA (( 'AUTOMOTIVE_DESIGN' ));
ENDSEC;

DATA;
#1 = DIRECTION ( 'NONE',  ( 0.000000000000000000, 0.000000000000000000, -1.000000000000000000 ) ) ;
#2 = PRODUCT_DEFINITION_SHAPE ( 'NONE', 'NONE',  #69 ) ;
#3 = VECTOR ( 'NONE', #127, 1000.000000000000000 ) ;
#4 = LINE ( 'NONE', #57, #341 ) ;
#5 = EDGE_LOOP ( 'NONE', ( #65, #269, #352, #14 ) ) ;
#6 = PLANE ( 'NONE',  #59 ) ;
#7 = EDGE_LOOP ( 'NONE', ( #164, #328, #304, #99 ) ) ;
#8 = DIRECTION ( 'NONE',  ( -0.000000000000000000, -0.000000000000000000, -1.000000000000000000 ) ) ;
#9 = PRODUCT_DEFINITION_CONTEXT ( 'detailed design', #368, 'design' ) ;
#10 = ORIENTED_EDGE ( 'NONE', *, *, #44, .F. ) ;
#11 = EDGE_CURVE ( 'NONE', #234, #218, #363, .T. ) ;
#12 = DIRECTION ( 'NONE',  ( -1.000000000000000000, 0.000000000000000000, -0.000000000000000000 ) ) ;
#13 = VERTEX_POINT ( 'NONE', #342 ) ;
#14 = ORIENTED_EDGE ( 'NONE', *, *, #222, .F. ) ;
#15 = APPLICATION_PROTOCOL_DEFINITION ( 'draft international standard', 'automotive_design', 1998, #163 ) ;
#16 = DIRECTION ( 'NONE',  ( 0.000000000000000000, -0.000000000000000000, 1.000000000000000000 ) ) ;
#17 = ADVANCED_FACE ( 'NONE', ( #160 ), #43, .F. ) ;
#18 = VECTOR ( 'NONE', #203, 1000.000000000000000 ) ;
#19 = DIRECTION ( 'NONE',  ( -0.000000000000000000, -0.000000000000000000, -1.000000000000000000 ) ) ;
#20 = LINE ( 'NONE', #215, #129 ) ;
#21 = EDGE_LOOP ( 'NONE', ( #35, #155, #96, #156 ) ) ;
#22 = FACE_OUTER_BOUND ( 'NONE', #281, .T. ) ;
#23 = SURFACE_STYLE_FILL_AREA ( #31 ) ;
#24 = DIRECTION ( 'NONE',  ( 1.000000000000000000, 0.000000000000000000, 0.000000000000000000 ) ) ;
#25 = CARTESIAN_POINT ( 'NONE',  ( -12.50000000000000000, -12.50000000000000000, 0.000000000000000000 ) ) ;
#26 =( NAMED_UNIT ( * ) PLANE_ANGLE_UNIT ( ) SI_UNIT ( $, .RADIAN. ) );
#27 = CARTESIAN_POINT ( 'NONE',  ( -12.50000000000000000, -12.50000000000000000, 1000.000000000000000 ) ) ;
#28 = CARTESIAN_POINT ( 'NONE',  ( 0.000000000000000000, 0.000000000000000000, 0.000000000000000000 ) ) ;
#29 = LINE ( 'NONE', #254, #278 ) ;
#30 = SURFACE_STYLE_FILL_AREA ( #232 ) ;
#31 = FILL_AREA_STYLE ('',( #321 ) ) ;
#32 = FACE_BOUND ( 'NONE', #216, .T. ) ;
#33 = ORIENTED_EDGE ( 'NONE', *, *, #309, .T. ) ;
#34 = LINE ( 'NONE', #325, #243 ) ;
#35 = ORIENTED_EDGE ( 'NONE', *, *, #126, .F. ) ;
#36 = CARTESIAN_POINT ( 'NONE',  ( -10.50000000000000000, -10.50000000000000000, 1000.000000000000000 ) ) ;
#37 = ORIENTED_EDGE ( 'NONE', *, *, #266, .T. ) ;
#38 = CARTESIAN_POINT ( 'NONE',  ( -10.50000000000000000, 10.50000000000000000, 1000.000000000000000 ) ) ;
#39 = CARTESIAN_POINT ( 'NONE',  ( 12.50000000000000000, 12.50000000000000000, 1000.000000000000000 ) ) ;
#40 = AXIS2_PLACEMENT_3D ( 'NONE', #147, #173, #12 ) ;
#41 = DIRECTION ( 'NONE',  ( -8.260587980841936314E-17, 1.000000000000000000, 0.000000000000000000 ) ) ;
#42 = AXIS2_PLACEMENT_3D ( 'NONE', #28, #261, #116 ) ;
#43 = PLANE ( 'NONE',  #80 ) ;
#44 = EDGE_CURVE ( 'NONE', #124, #271, #20, .T. ) ;
#45 = APPLICATION_CONTEXT ( 'automotive_design' ) ;
#46 = LINE ( 'NONE', #78, #102 ) ;
#47 = LINE ( 'NONE', #197, #149 ) ;
#48 = AXIS2_PLACEMENT_3D ( 'NONE', #167, #165, #374 ) ;
#49 = ADVANCED_FACE ( 'NONE', ( #22 ), #132, .T. ) ;
#50 = LINE ( 'NONE', #199, #343 ) ;
#51 = LINE ( 'NONE', #118, #238 ) ;
#52 = DIRECTION ( 'NONE',  ( 1.000000000000000000, 0.000000000000000000, 0.000000000000000000 ) ) ;
#53 = EDGE_CURVE ( 'NONE', #213, #338, #46, .T. ) ;
#54 =( LENGTH_UNIT ( ) NAMED_UNIT ( * ) SI_UNIT ( .MILLI., .METRE. ) );
#55 = PLANE ( 'NONE',  #214 ) ;
#56 = CARTESIAN_POINT ( 'NONE',  ( 10.50000000000000888, -10.50000000000000000, 1000.000000000000000 ) ) ;
#57 = CARTESIAN_POINT ( 'NONE',  ( -10.50000000000000000, -10.50000000000000000, 1000.000000000000000 ) ) ;
#58 = EDGE_LOOP ( 'NONE', ( #121, #280, #208, #77 ) ) ;
#59 = AXIS2_PLACEMENT_3D ( 'NONE', #95, #270, #233 ) ;
#60 = LINE ( 'NONE', #36, #18 ) ;
#61 = ADVANCED_FACE ( 'NONE', ( #105, #135 ), #104, .F. ) ;
#62 = UNCERTAINTY_MEASURE_WITH_UNIT (LENGTH_MEASURE( 1.000000000000000082E-05 ), #292, 'distance_accuracy_value', 'NONE');
#63 = VERTEX_POINT ( 'NONE', #250 ) ;
#64 = PLANE ( 'NONE',  #40 ) ;
#65 = ORIENTED_EDGE ( 'NONE', *, *, #364, .F. ) ;
#66 = VERTEX_POINT ( 'NONE', #366 ) ;
#67 = CARTESIAN_POINT ( 'NONE',  ( 0.000000000000000000, 0.000000000000000000, 0.000000000000000000 ) ) ;
#68 = AXIS2_PLACEMENT_3D ( 'NONE', #247, #130, #16 ) ;
#69 = PRODUCT_DEFINITION ( 'UNKNOWN', '', #139, #9 ) ;
#70 = EDGE_LOOP ( 'NONE', ( #362, #106, #279, #357 ) ) ;
#71 = VERTEX_POINT ( 'NONE', #161 ) ;
#72 =( REPRESENTATION_RELATIONSHIP ('NONE','NONE', #244, #125 ) REPRESENTATION_RELATIONSHIP_WITH_TRANSFORMATION ( #101 )SHAPE_REPRESENTATION_RELATIONSHIP( ) );
#73 = EDGE_LOOP ( 'NONE', ( #209, #274, #249, #190 ) ) ;
#74 = VECTOR ( 'NONE', #268, 1000.000000000000000 ) ;
#75 = DIRECTION ( 'NONE',  ( 0.000000000000000000, 0.000000000000000000, -1.000000000000000000 ) ) ;
#76 = EDGE_CURVE ( 'NONE', #154, #66, #192, .T. ) ;
#77 = ORIENTED_EDGE ( 'NONE', *, *, #11, .T. ) ;
#78 = CARTESIAN_POINT ( 'NONE',  ( -10.50000000000000000, -10.50000000000000000, 1000.000000000000000 ) ) ;
#79 = PLANE ( 'NONE',  #263 ) ;
#80 = AXIS2_PLACEMENT_3D ( 'NONE', #191, #308, #313 ) ;
#81 = CARTESIAN_POINT ( 'NONE',  ( 12.50000000000000000, -12.50000000000000000, 1000.000000000000000 ) ) ;
#82 = LINE ( 'NONE', #143, #178 ) ;
#83 =( NAMED_UNIT ( * ) PLANE_ANGLE_UNIT ( ) SI_UNIT ( $, .RADIAN. ) );
#84 = LINE ( 'NONE', #241, #74 ) ;
#85 = CARTESIAN_POINT ( 'NONE',  ( -10.50000000000000000, -10.50000000000000000, 1000.000000000000000 ) ) ;
#86 = AXIS2_PLACEMENT_3D ( 'NONE', #194, #223, #24 ) ;
#87 = DIRECTION ( 'NONE',  ( 0.000000000000000000, 0.000000000000000000, 1.000000000000000000 ) ) ;
#88 =( NAMED_UNIT ( * ) SI_UNIT ( $, .STERADIAN. ) SOLID_ANGLE_UNIT ( ) );
#89 = ORIENTED_EDGE ( 'NONE', *, *, #110, .F. ) ;
#90 = CARTESIAN_POINT ( 'NONE',  ( -10.50000000000000000, -10.50000000000000000, 0.000000000000000000 ) ) ;
#91 = AXIS2_PLACEMENT_3D ( 'NONE', #67, #267, #179 ) ;
#92 = VERTEX_POINT ( 'NONE', #103 ) ;
#93 = STYLED_ITEM ( 'NONE', ( #367 ), #240 ) ;
#94 = SHAPE_DEFINITION_REPRESENTATION ( #2, #125 ) ;
#95 = CARTESIAN_POINT ( 'NONE',  ( 10.50000000000000888, -10.50000000000000000, 1000.000000000000000 ) ) ;
#96 = ORIENTED_EDGE ( 'NONE', *, *, #195, .F. ) ;
#97 = SHAPE_DEFINITION_REPRESENTATION ( #228, #244 ) ;
#98 = STYLED_ITEM ( 'NONE', ( #145 ), #196 ) ;
#99 = ORIENTED_EDGE ( 'NONE', *, *, #370, .T. ) ;
#100 = ORIENTED_EDGE ( 'NONE', *, *, #53, .F. ) ;
#101 = ITEM_DEFINED_TRANSFORMATION ( 'NONE', 'NONE', #86,  #42 ) ;
#102 = VECTOR ( 'NONE', #157, 1000.000000000000000 ) ;
#103 = CARTESIAN_POINT ( 'NONE',  ( 10.50000000000000711, 10.50000000000000178, 1000.000000000000000 ) ) ;
#104 = PLANE ( 'NONE',  #316 ) ;
#105 = FACE_OUTER_BOUND ( 'NONE', #58, .T. ) ;
#106 = ORIENTED_EDGE ( 'NONE', *, *, #370, .F. ) ;
#107 =( GEOMETRIC_REPRESENTATION_CONTEXT ( 3 ) GLOBAL_UNCERTAINTY_ASSIGNED_CONTEXT ( ( #119 ) ) GLOBAL_UNIT_ASSIGNED_CONTEXT ( ( #54, #83, #229 ) ) REPRESENTATION_CONTEXT ( 'NONE', 'WORKASPACE' ) );
#108 = AXIS2_PLACEMENT_3D ( 'NONE', #262, #180, #299 ) ;
#109 = VERTEX_POINT ( 'NONE', #186 ) ;
#110 = EDGE_CURVE ( 'NONE', #71, #13, #306, .T. ) ;
#111 = CARTESIAN_POINT ( 'NONE',  ( -12.50000000000000000, -12.50000000000000000, 0.000000000000000000 ) ) ;
#112 = SURFACE_SIDE_STYLE ('',( #23 ) ) ;
#113 = VECTOR ( 'NONE', #256, 1000.000000000000000 ) ;
#114 = CARTESIAN_POINT ( 'NONE',  ( 12.50000000000000000, -12.50000000000000000, 1000.000000000000000 ) ) ;
#115 = FACE_OUTER_BOUND ( 'NONE', #70, .T. ) ;
#116 = DIRECTION ( 'NONE',  ( 1.000000000000000000, 0.000000000000000000, 0.000000000000000000 ) ) ;
#117 = PRODUCT ( 'PS25S2X \X2\041f0440043e04440438043b044c\X0\ \X2\0430043b044e043c0438043d043804350432044b0439\X0\, \X2\043a043204300434044004300442\X0\ 25x25x2 (\X2\041104350437\X0\ \X2\043f043e043a0440044b04420438044f\X0\)_00', 'PS25S2X \X2\041f0440043e04440438043b044c\X0\ \X2\0430043b044e043c0438043d043804350432044b0439\X0\, \X2\043a043204300434044004300442\X0\ 25x25x2 (\X2\041104350437\X0\ \X2\043f043e043a0440044b04420438044f\X0\)_00', '', ( #334 ) ) ;
#118 = CARTESIAN_POINT ( 'NONE',  ( -10.50000000000000000, 10.50000000000000000, 0.000000000000000000 ) ) ;
#119 = UNCERTAINTY_MEASURE_WITH_UNIT (LENGTH_MEASURE( 1.000000000000000082E-05 ), #54, 'distance_accuracy_value', 'NONE');
#120 = CARTESIAN_POINT ( 'NONE',  ( 10.50000000000000888, -10.50000000000000000, 1000.000000000000000 ) ) ;
#121 = ORIENTED_EDGE ( 'NONE', *, *, #185, .T. ) ;
#122 = ADVANCED_FACE ( 'NONE', ( #258 ), #55, .T. ) ;
#123 = LINE ( 'NONE', #90, #224 ) ;
#124 = VERTEX_POINT ( 'NONE', #221 ) ;
#125 = SHAPE_REPRESENTATION ( 'PS25S2X \X2\041f0440043e04440438043b044c\X0\ \X2\0430043b044e043c0438043d043804350432044b0439\X0\, \X2\043a043204300434044004300442\X0\ 25x25x2 (\X2\041104350437\X0\ \X2\043f043e043a0440044b04420438044f\X0\)_00', ( #42 ), #210 ) ;
#126 = EDGE_CURVE ( 'NONE', #109, #13, #82, .T. ) ;
#127 = DIRECTION ( 'NONE',  ( -0.000000000000000000, -0.000000000000000000, -1.000000000000000000 ) ) ;
#128 = PRESENTATION_LAYER_ASSIGNMENT (  '', '', ( #93 ) ) ;
#129 = VECTOR ( 'NONE', #41, 1000.000000000000000 ) ;
#130 = DIRECTION ( 'NONE',  ( 0.000000000000000000, 1.000000000000000000, 0.000000000000000000 ) ) ;
#131 = ADVANCED_FACE ( 'NONE', ( #348 ), #373, .F. ) ;
#132 = PLANE ( 'NONE',  #68 ) ;
#133 = EDGE_LOOP ( 'NONE', ( #297, #89, #152, #340 ) ) ;
#134 = ADVANCED_FACE ( 'NONE', ( #140 ), #79, .T. ) ;
#135 = FACE_BOUND ( 'NONE', #5, .T. ) ;
#136 = CARTESIAN_POINT ( 'NONE',  ( -10.50000000000000000, 10.50000000000000000, 1000.000000000000000 ) ) ;
#137 =( NAMED_UNIT ( * ) SI_UNIT ( $, .STERADIAN. ) SOLID_ANGLE_UNIT ( ) );
#138 = CARTESIAN_POINT ( 'NONE',  ( -10.50000000000000000, 10.50000000000000000, 1000.000000000000000 ) ) ;
#139 = PRODUCT_DEFINITION_FORMATION_WITH_SPECIFIED_SOURCE ( 'ANY', '', #117, .NOT_KNOWN. ) ;
#140 = FACE_OUTER_BOUND ( 'NONE', #73, .T. ) ;
#141 = MECHANICAL_DESIGN_GEOMETRIC_PRESENTATION_REPRESENTATION (  '', ( #93 ), #176 ) ;
#142 = EDGE_CURVE ( 'NONE', #63, #234, #47, .T. ) ;
#143 = CARTESIAN_POINT ( 'NONE',  ( 12.50000000000000000, -12.50000000000000000, 0.000000000000000000 ) ) ;
#144 = MECHANICAL_DESIGN_GEOMETRIC_PRESENTATION_REPRESENTATION (  '', ( #98 ), #107 ) ;
#145 = PRESENTATION_STYLE_ASSIGNMENT (( #318 ) ) ;
#146 = DIRECTION ( 'NONE',  ( 0.000000000000000000, 1.000000000000000000, 0.000000000000000000 ) ) ;
#147 = CARTESIAN_POINT ( 'NONE',  ( 0.000000000000000000, 0.000000000000000000, 0.000000000000000000 ) ) ;
#148 = ORIENTED_EDGE ( 'NONE', *, *, #76, .T. ) ;
#149 = VECTOR ( 'NONE', #171, 1000.000000000000000 ) ;
#150 = EDGE_LOOP ( 'NONE', ( #182, #365, #265, #188 ) ) ;
#151 = LINE ( 'NONE', #264, #219 ) ;
#152 = ORIENTED_EDGE ( 'NONE', *, *, #185, .F. ) ;
#153 = LINE ( 'NONE', #235, #246 ) ;
#154 = VERTEX_POINT ( 'NONE', #138 ) ;
#155 = ORIENTED_EDGE ( 'NONE', *, *, #158, .F. ) ;
#156 = ORIENTED_EDGE ( 'NONE', *, *, #371, .F. ) ;
#157 = DIRECTION ( 'NONE',  ( -0.000000000000000000, -0.000000000000000000, -1.000000000000000000 ) ) ;
#158 = EDGE_CURVE ( 'NONE', #177, #109, #290, .T. ) ;
#159 = VECTOR ( 'NONE', #198, 1000.000000000000000 ) ;
#160 = FACE_OUTER_BOUND ( 'NONE', #133, .T. ) ;
#161 = CARTESIAN_POINT ( 'NONE',  ( 12.50000000000000000, 12.50000000000000000, 1000.000000000000000 ) ) ;
#162 = EDGE_CURVE ( 'NONE', #271, #66, #51, .T. ) ;
#163 = APPLICATION_CONTEXT ( 'automotive_design' ) ;
#164 = ORIENTED_EDGE ( 'NONE', *, *, #195, .T. ) ;
#165 = DIRECTION ( 'NONE',  ( 0.000000000000000000, 1.000000000000000000, 0.000000000000000000 ) ) ;
#166 = DIRECTION ( 'NONE',  ( 0.000000000000000000, -1.000000000000000000, 0.000000000000000000 ) ) ;
#167 = CARTESIAN_POINT ( 'NONE',  ( -12.50000000000000000, -12.50000000000000000, 1000.000000000000000 ) ) ;
#168 = ADVANCED_FACE ( 'NONE', ( #115 ), #320, .F. ) ;
#169 = CARTESIAN_POINT ( 'NONE',  ( -10.50000000000000000, -10.50000000000000000, 0.000000000000000000 ) ) ;
#170 = SHAPE_REPRESENTATION_RELATIONSHIP ( 'NONE' , 'NONE' ,  #125, #196 ) ;
#171 = DIRECTION ( 'NONE',  ( -0.000000000000000000, -1.000000000000000000, -0.000000000000000000 ) ) ;
#172 = EDGE_CURVE ( 'NONE', #234, #177, #286, .T. ) ;
#173 = DIRECTION ( 'NONE',  ( 0.000000000000000000, 0.000000000000000000, -1.000000000000000000 ) ) ;
#174 = PRODUCT_RELATED_PRODUCT_CATEGORY ( 'part', '', ( #117 ) ) ;
#175 = FACE_OUTER_BOUND ( 'NONE', #21, .T. ) ;
#176 =( GEOMETRIC_REPRESENTATION_CONTEXT ( 3 ) GLOBAL_UNCERTAINTY_ASSIGNED_CONTEXT ( ( #62 ) ) GLOBAL_UNIT_ASSIGNED_CONTEXT ( ( #292, #212, #88 ) ) REPRESENTATION_CONTEXT ( 'NONE', 'WORKASPACE' ) );
#177 = VERTEX_POINT ( 'NONE', #25 ) ;
#178 = VECTOR ( 'NONE', #146, 1000.000000000000000 ) ;
#179 = DIRECTION ( 'NONE',  ( 1.000000000000000000, 0.000000000000000000, 0.000000000000000000 ) ) ;
#180 = DIRECTION ( 'NONE',  ( 1.000000000000000000, 0.000000000000000000, 0.000000000000000000 ) ) ;
#181 = PRODUCT_DEFINITION_CONTEXT ( 'detailed design', #163, 'design' ) ;
#182 = ORIENTED_EDGE ( 'NONE', *, *, #158, .T. ) ;
#183 = EDGE_CURVE ( 'NONE', #338, #124, #317, .T. ) ;
#184 = EDGE_LOOP ( 'NONE', ( #10, #302, #300, #37 ) ) ;
#185 = EDGE_CURVE ( 'NONE', #218, #71, #227, .T. ) ;
#186 = CARTESIAN_POINT ( 'NONE',  ( 12.50000000000000000, -12.50000000000000000, 0.000000000000000000 ) ) ;
#187 = PRODUCT_RELATED_PRODUCT_CATEGORY ( 'part', '', ( #289 ) ) ;
#188 = ORIENTED_EDGE ( 'NONE', *, *, #172, .T. ) ;
#189 = VECTOR ( 'NONE', #288, 1000.000000000000000 ) ;
#190 = ORIENTED_EDGE ( 'NONE', *, *, #53, .T. ) ;
#191 = CARTESIAN_POINT ( 'NONE',  ( 12.50000000000000000, -12.50000000000000000, 1000.000000000000000 ) ) ;
#192 = LINE ( 'NONE', #38, #3 ) ;
#193 = DIRECTION ( 'NONE',  ( -1.000000000000000000, -8.260587980841935082E-17, -0.000000000000000000 ) ) ;
#194 = CARTESIAN_POINT ( 'NONE',  ( 997.1675629567848773, 1005.483027263523581, 497.3503008534179344 ) ) ;
#195 = EDGE_CURVE ( 'NONE', #336, #177, #345, .T. ) ;
#196 = ADVANCED_BREP_SHAPE_REPRESENTATION ( '', ( #240, #42 ), #210 ) ;
#197 = CARTESIAN_POINT ( 'NONE',  ( -12.50000000000000000, -12.50000000000000000, 1000.000000000000000 ) ) ;
#198 = DIRECTION ( 'NONE',  ( 1.000000000000000000, 0.000000000000000000, 0.000000000000000000 ) ) ;
#199 = CARTESIAN_POINT ( 'NONE',  ( 10.50000000000000888, -10.50000000000000000, 1000.000000000000000 ) ) ;
#200 = EDGE_CURVE ( 'NONE', #71, #63, #29, .T. ) ;
#201 =( LENGTH_UNIT ( ) NAMED_UNIT ( * ) SI_UNIT ( .MILLI., .METRE. ) );
#202 =( GEOMETRIC_REPRESENTATION_CONTEXT ( 3 ) GLOBAL_UNCERTAINTY_ASSIGNED_CONTEXT ( ( #330 ) ) GLOBAL_UNIT_ASSIGNED_CONTEXT ( ( #201, #252, #137 ) ) REPRESENTATION_CONTEXT ( 'NONE', 'WORKASPACE' ) );
#203 = DIRECTION ( 'NONE',  ( -0.000000000000000000, -1.000000000000000000, -0.000000000000000000 ) ) ;
#204 =( LENGTH_UNIT ( ) NAMED_UNIT ( * ) SI_UNIT ( .MILLI., .METRE. ) );
#205 = PLANE ( 'NONE',  #108 ) ;
#206 = DIRECTION ( 'NONE',  ( -0.000000000000000000, -1.000000000000000000, -0.000000000000000000 ) ) ;
#207 = VECTOR ( 'NONE', #301, 1000.000000000000000 ) ;
#208 = ORIENTED_EDGE ( 'NONE', *, *, #142, .T. ) ;
#209 = ORIENTED_EDGE ( 'NONE', *, *, #309, .F. ) ;
#210 =( GEOMETRIC_REPRESENTATION_CONTEXT ( 3 ) GLOBAL_UNCERTAINTY_ASSIGNED_CONTEXT ( ( #315 ) ) GLOBAL_UNIT_ASSIGNED_CONTEXT ( ( #204, #26, #259 ) ) REPRESENTATION_CONTEXT ( 'NONE', 'WORKASPACE' ) );
#211 = APPLICATION_PROTOCOL_DEFINITION ( 'draft international standard', 'automotive_design', 1998, #45 ) ;
#212 =( NAMED_UNIT ( * ) PLANE_ANGLE_UNIT ( ) SI_UNIT ( $, .RADIAN. ) );
#213 = VERTEX_POINT ( 'NONE', #85 ) ;
#214 = AXIS2_PLACEMENT_3D ( 'NONE', #136, #226, #260 ) ;
#215 = CARTESIAN_POINT ( 'NONE',  ( 10.50000000000000888, -10.50000000000000000, 0.000000000000000000 ) ) ;
#216 = EDGE_LOOP ( 'NONE', ( #33, #276, #351, #326 ) ) ;
#217 = EDGE_LOOP ( 'NONE', ( #305, #245, #220, #148 ) ) ;
#218 = VERTEX_POINT ( 'NONE', #81 ) ;
#219 = VECTOR ( 'NONE', #8, 1000.000000000000000 ) ;
#220 = ORIENTED_EDGE ( 'NONE', *, *, #361, .T. ) ;
#221 = CARTESIAN_POINT ( 'NONE',  ( 10.50000000000000888, -10.50000000000000000, 0.000000000000000000 ) ) ;
#222 = EDGE_CURVE ( 'NONE', #335, #92, #50, .T. ) ;
#223 = DIRECTION ( 'NONE',  ( 0.000000000000000000, 0.000000000000000000, 1.000000000000000000 ) ) ;
#224 = VECTOR ( 'NONE', #206, 1000.000000000000000 ) ;
#225 = CARTESIAN_POINT ( 'NONE',  ( -10.50000000000000000, -10.50000000000000000, 1000.000000000000000 ) ) ;
#226 = DIRECTION ( 'NONE',  ( 8.260587980841935082E-17, -1.000000000000000000, 0.000000000000000000 ) ) ;
#227 = LINE ( 'NONE', #114, #189 ) ;
#228 = PRODUCT_DEFINITION_SHAPE ( 'NONE', 'NONE',  #253 ) ;
#229 =( NAMED_UNIT ( * ) SI_UNIT ( $, .STERADIAN. ) SOLID_ANGLE_UNIT ( ) );
#230 = DIRECTION ( 'NONE',  ( 0.000000000000000000, -0.000000000000000000, -1.000000000000000000 ) ) ;
#231 = VECTOR ( 'NONE', #360, 1000.000000000000000 ) ;
#232 = FILL_AREA_STYLE ('',( #307 ) ) ;
#233 = DIRECTION ( 'NONE',  ( 8.260587980841936314E-17, -1.000000000000000000, 0.000000000000000000 ) ) ;
#234 = VERTEX_POINT ( 'NONE', #369 ) ;
#235 = CARTESIAN_POINT ( 'NONE',  ( 12.50000000000000000, -12.50000000000000000, 1000.000000000000000 ) ) ;
#236 = ORIENTED_EDGE ( 'NONE', *, *, #183, .F. ) ;
#237 = DIRECTION ( 'NONE',  ( -0.000000000000000000, -0.000000000000000000, -1.000000000000000000 ) ) ;
#238 = VECTOR ( 'NONE', #193, 1000.000000000000000 ) ;
#239 = APPLICATION_PROTOCOL_DEFINITION ( 'draft international standard', 'automotive_design', 1998, #331 ) ;
#240 = MANIFOLD_SOLID_BREP ( '\X2\0411043e0431044b0448043a0430\X0\-\X2\0412044b0442044f043d04430442044c\X0\1', #282 ) ;
#241 = CARTESIAN_POINT ( 'NONE',  ( 10.50000000000000711, 10.50000000000000178, 1000.000000000000000 ) ) ;
#242 = ORIENTED_EDGE ( 'NONE', *, *, #364, .T. ) ;
#243 = VECTOR ( 'NONE', #327, 1000.000000000000000 ) ;
#244 = SHAPE_REPRESENTATION ( '\X2\04210431043e0440043a0430\X0\2', ( #91, #86 ), #202 ) ;
#245 = ORIENTED_EDGE ( 'NONE', *, *, #266, .F. ) ;
#246 = VECTOR ( 'NONE', #237, 1000.000000000000000 ) ;
#247 = CARTESIAN_POINT ( 'NONE',  ( -10.50000000000000000, -10.50000000000000000, 1000.000000000000000 ) ) ;
#248 = LINE ( 'NONE', #120, #207 ) ;
#249 = ORIENTED_EDGE ( 'NONE', *, *, #303, .T. ) ;
#250 = CARTESIAN_POINT ( 'NONE',  ( -12.50000000000000000, 12.50000000000000000, 1000.000000000000000 ) ) ;
#251 = SURFACE_STYLE_USAGE ( .BOTH. , #112 ) ;
#252 =( NAMED_UNIT ( * ) PLANE_ANGLE_UNIT ( ) SI_UNIT ( $, .RADIAN. ) );
#253 = PRODUCT_DEFINITION ( 'UNKNOWN', '', #353, #181 ) ;
#254 = CARTESIAN_POINT ( 'NONE',  ( -12.50000000000000000, 12.50000000000000000, 1000.000000000000000 ) ) ;
#255 = AXIS2_PLACEMENT_3D ( 'NONE', #285, #166, #230 ) ;
#256 = DIRECTION ( 'NONE',  ( -0.000000000000000000, -0.000000000000000000, -1.000000000000000000 ) ) ;
#257 = COLOUR_RGB ( '',0.8666666666666666963, 0.9098039215686274384, 1.000000000000000000 ) ;
#258 = FACE_OUTER_BOUND ( 'NONE', #217, .T. ) ;
#259 =( NAMED_UNIT ( * ) SI_UNIT ( $, .STERADIAN. ) SOLID_ANGLE_UNIT ( ) );
#260 = DIRECTION ( 'NONE',  ( 1.000000000000000000, 8.260587980841935082E-17, 0.000000000000000000 ) ) ;
#261 = DIRECTION ( 'NONE',  ( 0.000000000000000000, 0.000000000000000000, 1.000000000000000000 ) ) ;
#262 = CARTESIAN_POINT ( 'NONE',  ( -12.50000000000000000, -12.50000000000000000, 1000.000000000000000 ) ) ;
#263 = AXIS2_PLACEMENT_3D ( 'NONE', #225, #319, #1 ) ;
#264 = CARTESIAN_POINT ( 'NONE',  ( -12.50000000000000000, 12.50000000000000000, 1000.000000000000000 ) ) ;
#265 = ORIENTED_EDGE ( 'NONE', *, *, #11, .F. ) ;
#266 = EDGE_CURVE ( 'NONE', #92, #271, #84, .T. ) ;
#267 = DIRECTION ( 'NONE',  ( 0.000000000000000000, 0.000000000000000000, 1.000000000000000000 ) ) ;
#268 = DIRECTION ( 'NONE',  ( -0.000000000000000000, -0.000000000000000000, -1.000000000000000000 ) ) ;
#269 = ORIENTED_EDGE ( 'NONE', *, *, #303, .F. ) ;
#270 = DIRECTION ( 'NONE',  ( -1.000000000000000000, -8.260587980841936314E-17, 0.000000000000000000 ) ) ;
#271 = VERTEX_POINT ( 'NONE', #323 ) ;
#272 = EDGE_CURVE ( 'NONE', #218, #109, #153, .T. ) ;
#273 = AXIS2_PLACEMENT_3D ( 'NONE', #372, #87, #284 ) ;
#274 = ORIENTED_EDGE ( 'NONE', *, *, #76, .F. ) ;
#275 = VECTOR ( 'NONE', #291, 1000.000000000000000 ) ;
#276 = ORIENTED_EDGE ( 'NONE', *, *, #183, .T. ) ;
#277 = CARTESIAN_POINT ( 'NONE',  ( -12.50000000000000000, -12.50000000000000000, 1000.000000000000000 ) ) ;
#278 = VECTOR ( 'NONE', #347, 1000.000000000000000 ) ;
#279 = ORIENTED_EDGE ( 'NONE', *, *, #200, .F. ) ;
#280 = ORIENTED_EDGE ( 'NONE', *, *, #200, .T. ) ;
#281 = EDGE_LOOP ( 'NONE', ( #236, #100, #242, #333 ) ) ;
#282 = CLOSED_SHELL ( 'NONE', ( #61, #337, #17, #168, #359, #131, #49, #324, #122, #134 ) ) ;
#283 = CARTESIAN_POINT ( 'NONE',  ( -12.50000000000000000, -12.50000000000000000, 0.000000000000000000 ) ) ;
#284 = DIRECTION ( 'NONE',  ( 1.000000000000000000, 0.000000000000000000, 0.000000000000000000 ) ) ;
#285 = CARTESIAN_POINT ( 'NONE',  ( -12.50000000000000000, 12.50000000000000000, 1000.000000000000000 ) ) ;
#286 = LINE ( 'NONE', #27, #113 ) ;
#287 = CARTESIAN_POINT ( 'NONE',  ( -12.50000000000000000, 12.50000000000000000, 0.000000000000000000 ) ) ;
#288 = DIRECTION ( 'NONE',  ( 0.000000000000000000, 1.000000000000000000, 0.000000000000000000 ) ) ;
#289 = PRODUCT ( '\X2\04210431043e0440043a0430\X0\2', '\X2\04210431043e0440043a0430\X0\2', '', ( #354 ) ) ;
#290 = LINE ( 'NONE', #283, #159 ) ;
#291 = DIRECTION ( 'NONE',  ( -1.000000000000000000, -0.000000000000000000, -0.000000000000000000 ) ) ;
#292 =( LENGTH_UNIT ( ) NAMED_UNIT ( * ) SI_UNIT ( .MILLI., .METRE. ) );
#293 = COLOUR_RGB ( '',0.8666666666666666963, 0.9098039215686274384, 1.000000000000000000 ) ;
#294 = DIRECTION ( 'NONE',  ( 1.000000000000000000, 0.000000000000000000, 0.000000000000000000 ) ) ;
#295 = VECTOR ( 'NONE', #19, 1000.000000000000000 ) ;
#296 = EDGE_CURVE ( 'NONE', #335, #124, #248, .T. ) ;
#297 = ORIENTED_EDGE ( 'NONE', *, *, #126, .T. ) ;
#298 = CONTEXT_DEPENDENT_SHAPE_REPRESENTATION ( #72, #322 ) ;
#299 = DIRECTION ( 'NONE',  ( 0.000000000000000000, 0.000000000000000000, -1.000000000000000000 ) ) ;
#300 = ORIENTED_EDGE ( 'NONE', *, *, #222, .T. ) ;
#301 = DIRECTION ( 'NONE',  ( -0.000000000000000000, -0.000000000000000000, -1.000000000000000000 ) ) ;
#302 = ORIENTED_EDGE ( 'NONE', *, *, #296, .F. ) ;
#303 = EDGE_CURVE ( 'NONE', #154, #213, #60, .T. ) ;
#304 = ORIENTED_EDGE ( 'NONE', *, *, #142, .F. ) ;
#305 = ORIENTED_EDGE ( 'NONE', *, *, #162, .F. ) ;
#306 = LINE ( 'NONE', #39, #295 ) ;
#307 = FILL_AREA_STYLE_COLOUR ( '', #257 ) ;
#308 = DIRECTION ( 'NONE',  ( -1.000000000000000000, 0.000000000000000000, 0.000000000000000000 ) ) ;
#309 = EDGE_CURVE ( 'NONE', #66, #338, #123, .T. ) ;
#310 = VECTOR ( 'NONE', #344, 1000.000000000000000 ) ;
#311 = DIRECTION ( 'NONE',  ( -1.000000000000000000, 0.000000000000000000, -0.000000000000000000 ) ) ;
#312 = PRESENTATION_LAYER_ASSIGNMENT (  '', '', ( #98 ) ) ;
#313 = DIRECTION ( 'NONE',  ( 0.000000000000000000, 0.000000000000000000, 1.000000000000000000 ) ) ;
#314 = DIRECTION ( 'NONE',  ( -8.260587980841936314E-17, 1.000000000000000000, 0.000000000000000000 ) ) ;
#315 = UNCERTAINTY_MEASURE_WITH_UNIT (LENGTH_MEASURE( 1.000000000000000082E-05 ), #204, 'distance_accuracy_value', 'NONE');
#316 = AXIS2_PLACEMENT_3D ( 'NONE', #339, #75, #311 ) ;
#317 = LINE ( 'NONE', #169, #355 ) ;
#318 = SURFACE_STYLE_USAGE ( .BOTH. , #349 ) ;
#319 = DIRECTION ( 'NONE',  ( 1.000000000000000000, 0.000000000000000000, 0.000000000000000000 ) ) ;
#320 = PLANE ( 'NONE',  #255 ) ;
#321 = FILL_AREA_STYLE_COLOUR ( '', #293 ) ;
#322 = PRODUCT_DEFINITION_SHAPE ( 'NONE', 'NONE',  #375 ) ;
#323 = CARTESIAN_POINT ( 'NONE',  ( 10.50000000000000711, 10.50000000000000178, 0.000000000000000000 ) ) ;
#324 = ADVANCED_FACE ( 'NONE', ( #356 ), #6, .T. ) ;
#325 = CARTESIAN_POINT ( 'NONE',  ( -10.50000000000000000, 10.50000000000000000, 1000.000000000000000 ) ) ;
#326 = ORIENTED_EDGE ( 'NONE', *, *, #162, .T. ) ;
#327 = DIRECTION ( 'NONE',  ( -1.000000000000000000, -8.260587980841935082E-17, -0.000000000000000000 ) ) ;
#328 = ORIENTED_EDGE ( 'NONE', *, *, #172, .F. ) ;
#329 = CARTESIAN_POINT ( 'NONE',  ( -10.50000000000000000, -10.50000000000000000, 0.000000000000000000 ) ) ;
#330 = UNCERTAINTY_MEASURE_WITH_UNIT (LENGTH_MEASURE( 1.000000000000000082E-05 ), #201, 'distance_accuracy_value', 'NONE');
#331 = APPLICATION_CONTEXT ( 'automotive_design' ) ;
#332 = APPLICATION_PROTOCOL_DEFINITION ( 'draft international standard', 'automotive_design', 1998, #368 ) ;
#333 = ORIENTED_EDGE ( 'NONE', *, *, #296, .T. ) ;
#334 = PRODUCT_CONTEXT ( 'NONE', #331, 'mechanical' ) ;
#335 = VERTEX_POINT ( 'NONE', #56 ) ;
#336 = VERTEX_POINT ( 'NONE', #350 ) ;
#337 = ADVANCED_FACE ( 'NONE', ( #175, #32 ), #64, .T. ) ;
#338 = VERTEX_POINT ( 'NONE', #329 ) ;
#339 = CARTESIAN_POINT ( 'NONE',  ( 0.000000000000000000, 0.000000000000000000, 1000.000000000000000 ) ) ;
#340 = ORIENTED_EDGE ( 'NONE', *, *, #272, .T. ) ;
#341 = VECTOR ( 'NONE', #294, 1000.000000000000000 ) ;
#342 = CARTESIAN_POINT ( 'NONE',  ( 12.50000000000000000, 12.50000000000000000, 0.000000000000000000 ) ) ;
#343 = VECTOR ( 'NONE', #314, 1000.000000000000000 ) ;
#344 = DIRECTION ( 'NONE',  ( -0.000000000000000000, -1.000000000000000000, -0.000000000000000000 ) ) ;
#345 = LINE ( 'NONE', #111, #310 ) ;
#346 = LINE ( 'NONE', #287, #275 ) ;
#347 = DIRECTION ( 'NONE',  ( -1.000000000000000000, -0.000000000000000000, -0.000000000000000000 ) ) ;
#348 = FACE_OUTER_BOUND ( 'NONE', #150, .T. ) ;
#349 = SURFACE_SIDE_STYLE ('',( #30 ) ) ;
#350 = CARTESIAN_POINT ( 'NONE',  ( -12.50000000000000000, 12.50000000000000000, 0.000000000000000000 ) ) ;
#351 = ORIENTED_EDGE ( 'NONE', *, *, #44, .T. ) ;
#352 = ORIENTED_EDGE ( 'NONE', *, *, #361, .F. ) ;
#353 = PRODUCT_DEFINITION_FORMATION_WITH_SPECIFIED_SOURCE ( 'ANY', '', #289, .NOT_KNOWN. ) ;
#354 = PRODUCT_CONTEXT ( 'NONE', #45, 'mechanical' ) ;
#355 = VECTOR ( 'NONE', #52, 1000.000000000000000 ) ;
#356 = FACE_OUTER_BOUND ( 'NONE', #184, .T. ) ;
#357 = ORIENTED_EDGE ( 'NONE', *, *, #110, .T. ) ;
#358 = FACE_OUTER_BOUND ( 'NONE', #7, .T. ) ;
#359 = ADVANCED_FACE ( 'NONE', ( #358 ), #205, .F. ) ;
#360 = DIRECTION ( 'NONE',  ( 1.000000000000000000, 0.000000000000000000, 0.000000000000000000 ) ) ;
#361 = EDGE_CURVE ( 'NONE', #92, #154, #34, .T. ) ;
#362 = ORIENTED_EDGE ( 'NONE', *, *, #371, .T. ) ;
#363 = LINE ( 'NONE', #277, #231 ) ;
#364 = EDGE_CURVE ( 'NONE', #213, #335, #4, .T. ) ;
#365 = ORIENTED_EDGE ( 'NONE', *, *, #272, .F. ) ;
#366 = CARTESIAN_POINT ( 'NONE',  ( -10.50000000000000000, 10.50000000000000000, 0.000000000000000000 ) ) ;
#367 = PRESENTATION_STYLE_ASSIGNMENT (( #251 ) ) ;
#368 = APPLICATION_CONTEXT ( 'automotive_design' ) ;
#369 = CARTESIAN_POINT ( 'NONE',  ( -12.50000000000000000, -12.50000000000000000, 1000.000000000000000 ) ) ;
#370 = EDGE_CURVE ( 'NONE', #63, #336, #151, .T. ) ;
#371 = EDGE_CURVE ( 'NONE', #13, #336, #346, .T. ) ;
#372 = CARTESIAN_POINT ( 'NONE',  ( 0.000000000000000000, 0.000000000000000000, 0.000000000000000000 ) ) ;
#373 = PLANE ( 'NONE',  #48 ) ;
#374 = DIRECTION ( 'NONE',  ( 0.000000000000000000, -0.000000000000000000, 1.000000000000000000 ) ) ;
#375 = NEXT_ASSEMBLY_USAGE_OCCURRENCE ( 'NAUO1', ' ', ' ', #253, #69, $ ) ;
ENDSEC;
END-ISO-10303-21;
