ISO-10303-21;
HEADER;
FILE_DESCRIPTION (( 'STEP AP214' ),
    '1' );
FILE_NAME ('Ñáîðêà2.STEP',
    '2024-12-03T09:07:25',
    ( '' ),
    ( '' ),
    'SwSTEP 2.0',
    'SolidWorks 2024',
    '' );
FILE_SCHEMA (( 'AUTOMOTIVE_DESIGN' ));
ENDSEC;

DATA;
#1 = DIRECTION ( 'NONE',  ( -0.000000000000000000, -0.000000000000000000, -1.000000000000000000 ) ) ;
#2 = PLANE ( 'NONE',  #338 ) ;
#3 = LINE ( 'NONE', #336, #166 ) ;
#4 = LINE ( 'NONE', #258, #36 ) ;
#5 = VECTOR ( 'NONE', #321, 1000.000000000000000 ) ;
#6 = ORIENTED_EDGE ( 'NONE', *, *, #259, .T. ) ;
#7 = EDGE_LOOP ( 'NONE', ( #238, #53, #291, #268 ) ) ;
#8 = FACE_OUTER_BOUND ( 'NONE', #7, .T. ) ;
#9 = ORIENTED_EDGE ( 'NONE', *, *, #50, .T. ) ;
#10 = LINE ( 'NONE', #40, #217 ) ;
#11 = VERTEX_POINT ( 'NONE', #182 ) ;
#12 = DIRECTION ( 'NONE',  ( 0.000000000000000000, -0.000000000000000000, -1.000000000000000000 ) ) ;
#13 = ADVANCED_FACE ( 'NONE', ( #129 ), #272, .T. ) ;
#14 = UNCERTAINTY_MEASURE_WITH_UNIT (LENGTH_MEASURE( 1.000000000000000082E-05 ), #104, 'distance_accuracy_value', 'NONE');
#15 = CARTESIAN_POINT ( 'NONE',  ( -20.00000000000000000, -20.00000000000000000, 1000.000000000000000 ) ) ;
#16 = APPLICATION_PROTOCOL_DEFINITION ( 'draft international standard', 'automotive_design', 1998, #56 ) ;
#17 = PRODUCT_DEFINITION ( 'UNKNOWN', '', #209, #353 ) ;
#18 = DIRECTION ( 'NONE',  ( 0.000000000000000000, 0.000000000000000000, -1.000000000000000000 ) ) ;
#19 = CARTESIAN_POINT ( 'NONE',  ( 20.00000000000000000, 20.00000000000000000, 1000.000000000000000 ) ) ;
#20 = VERTEX_POINT ( 'NONE', #179 ) ;
#21 = LINE ( 'NONE', #299, #30 ) ;
#22 = DIRECTION ( 'NONE',  ( 0.000000000000000000, 0.000000000000000000, 1.000000000000000000 ) ) ;
#23 = DIRECTION ( 'NONE',  ( 0.000000000000000000, 0.000000000000000000, 1.000000000000000000 ) ) ;
#24 = VECTOR ( 'NONE', #359, 1000.000000000000000 ) ;
#25 = APPLICATION_CONTEXT ( 'automotive_design' ) ;
#26 = CARTESIAN_POINT ( 'NONE',  ( 20.00000000000000000, -20.00000000000000000, 1000.000000000000000 ) ) ;
#27 = LINE ( 'NONE', #207, #141 ) ;
#28 = EDGE_CURVE ( 'NONE', #103, #150, #296, .T. ) ;
#29 = CARTESIAN_POINT ( 'NONE',  ( 20.00000000000000000, 20.00000000000000000, 0.000000000000000000 ) ) ;
#30 = VECTOR ( 'NONE', #206, 1000.000000000000000 ) ;
#31 = VECTOR ( 'NONE', #292, 1000.000000000000000 ) ;
#32 = LINE ( 'NONE', #114, #52 ) ;
#33 = CARTESIAN_POINT ( 'NONE',  ( -20.00000000000000000, -20.00000000000000000, 0.000000000000000000 ) ) ;
#34 = ORIENTED_EDGE ( 'NONE', *, *, #85, .F. ) ;
#35 = VERTEX_POINT ( 'NONE', #244 ) ;
#36 = VECTOR ( 'NONE', #314, 1000.000000000000000 ) ;
#37 = EDGE_CURVE ( 'NONE', #216, #80, #55, .T. ) ;
#38 = VERTEX_POINT ( 'NONE', #275 ) ;
#39 = PRESENTATION_STYLE_ASSIGNMENT (( #239 ) ) ;
#40 = CARTESIAN_POINT ( 'NONE',  ( -18.00000000000000355, -18.00000000000000355, 1000.000000000000000 ) ) ;
#41 = PRESENTATION_LAYER_ASSIGNMENT (  '', '', ( #120 ) ) ;
#42 = ORIENTED_EDGE ( 'NONE', *, *, #341, .T. ) ;
#43 = DIRECTION ( 'NONE',  ( -1.000000000000000000, 0.000000000000000000, -0.000000000000000000 ) ) ;
#44 = ORIENTED_EDGE ( 'NONE', *, *, #253, .F. ) ;
#45 = PRODUCT ( '\X2\04210431043e0440043a0430\X0\2', '\X2\04210431043e0440043a0430\X0\2', '', ( #249 ) ) ;
#46 = EDGE_CURVE ( 'NONE', #150, #20, #215, .T. ) ;
#47 = DIRECTION ( 'NONE',  ( 0.000000000000000000, 0.000000000000000000, 1.000000000000000000 ) ) ;
#48 = ORIENTED_EDGE ( 'NONE', *, *, #37, .T. ) ;
#49 = SHAPE_REPRESENTATION ( '\X2\04210431043e0440043a0430\X0\2', ( #107, #125 ), #265 ) ;
#50 = EDGE_CURVE ( 'NONE', #38, #246, #21, .T. ) ;
#51 = LINE ( 'NONE', #164, #235 ) ;
#52 = VECTOR ( 'NONE', #227, 1000.000000000000000 ) ;
#53 = ORIENTED_EDGE ( 'NONE', *, *, #312, .F. ) ;
#54 =( NAMED_UNIT ( * ) PLANE_ANGLE_UNIT ( ) SI_UNIT ( $, .RADIAN. ) );
#55 = LINE ( 'NONE', #354, #343 ) ;
#56 = APPLICATION_CONTEXT ( 'automotive_design' ) ;
#57 = FACE_BOUND ( 'NONE', #156, .T. ) ;
#58 = DIRECTION ( 'NONE',  ( 0.000000000000000000, 1.000000000000000000, 0.000000000000000000 ) ) ;
#59 = EDGE_CURVE ( 'NONE', #154, #246, #304, .T. ) ;
#60 = DIRECTION ( 'NONE',  ( 0.000000000000000000, 1.000000000000000000, 0.000000000000000000 ) ) ;
#61 = CARTESIAN_POINT ( 'NONE',  ( -20.00000000000000000, -20.00000000000000000, 0.000000000000000000 ) ) ;
#62 = PLANE ( 'NONE',  #318 ) ;
#63 = CLOSED_SHELL ( 'NONE', ( #213, #144, #74, #279, #281, #155, #174, #121, #221, #13 ) ) ;
#64 =( NAMED_UNIT ( * ) PLANE_ANGLE_UNIT ( ) SI_UNIT ( $, .RADIAN. ) );
#65 = ORIENTED_EDGE ( 'NONE', *, *, #324, .F. ) ;
#66 = EDGE_CURVE ( 'NONE', #11, #320, #116, .T. ) ;
#67 = CARTESIAN_POINT ( 'NONE',  ( -18.00000000000000355, 18.00000000000000355, 1000.000000000000000 ) ) ;
#68 = ORIENTED_EDGE ( 'NONE', *, *, #289, .T. ) ;
#69 = CARTESIAN_POINT ( 'NONE',  ( -18.00000000000000355, 18.00000000000000355, 1000.000000000000000 ) ) ;
#70 = ORIENTED_EDGE ( 'NONE', *, *, #259, .F. ) ;
#71 = PLANE ( 'NONE',  #344 ) ;
#72 = VECTOR ( 'NONE', #60, 1000.000000000000000 ) ;
#73 = EDGE_LOOP ( 'NONE', ( #346, #200, #6, #148 ) ) ;
#74 = ADVANCED_FACE ( 'NONE', ( #250 ), #62, .F. ) ;
#75 = CARTESIAN_POINT ( 'NONE',  ( -18.00000000000000355, 18.00000000000000355, 0.000000000000000000 ) ) ;
#76 = EDGE_LOOP ( 'NONE', ( #152, #34, #134, #128 ) ) ;
#77 = PRODUCT_DEFINITION_SHAPE ( 'NONE', 'NONE',  #17 ) ;
#78 = DIRECTION ( 'NONE',  ( 1.000000000000000000, 0.000000000000000000, 0.000000000000000000 ) ) ;
#79 = CARTESIAN_POINT ( 'NONE',  ( 0.000000000000000000, 0.000000000000000000, 0.000000000000000000 ) ) ;
#80 = VERTEX_POINT ( 'NONE', #29 ) ;
#81 = APPLICATION_PROTOCOL_DEFINITION ( 'draft international standard', 'automotive_design', 1998, #25 ) ;
#82 = DIRECTION ( 'NONE',  ( 0.000000000000000000, 1.000000000000000000, 0.000000000000000000 ) ) ;
#83 = DIRECTION ( 'NONE',  ( 1.000000000000000000, 0.000000000000000000, 0.000000000000000000 ) ) ;
#84 = PLANE ( 'NONE',  #278 ) ;
#85 = EDGE_CURVE ( 'NONE', #205, #38, #254, .T. ) ;
#86 = LINE ( 'NONE', #220, #97 ) ;
#87 = CARTESIAN_POINT ( 'NONE',  ( -20.00000000000000000, 20.00000000000000000, 1000.000000000000000 ) ) ;
#88 = ADVANCED_BREP_SHAPE_REPRESENTATION ( '', ( #232, #171 ), #242 ) ;
#89 = PRODUCT_RELATED_PRODUCT_CATEGORY ( 'part', '', ( #127 ) ) ;
#90 = CARTESIAN_POINT ( 'NONE',  ( 20.00000000000000000, -20.00000000000000000, 1000.000000000000000 ) ) ;
#91 = CONTEXT_DEPENDENT_SHAPE_REPRESENTATION ( #311, #301 ) ;
#92 = DIRECTION ( 'NONE',  ( -0.000000000000000000, -1.000000000000000000, -0.000000000000000000 ) ) ;
#93 = PLANE ( 'NONE',  #145 ) ;
#94 = FACE_OUTER_BOUND ( 'NONE', #273, .T. ) ;
#95 = ORIENTED_EDGE ( 'NONE', *, *, #186, .T. ) ;
#96 = AXIS2_PLACEMENT_3D ( 'NONE', #356, #99, #18 ) ;
#97 = VECTOR ( 'NONE', #303, 1000.000000000000000 ) ;
#98 = CARTESIAN_POINT ( 'NONE',  ( 18.00000000000001066, -18.00000000000000355, 0.000000000000000000 ) ) ;
#99 = DIRECTION ( 'NONE',  ( 1.000000000000000000, 0.000000000000000000, 0.000000000000000000 ) ) ;
#100 = CARTESIAN_POINT ( 'NONE',  ( -18.00000000000000355, 18.00000000000000355, 1000.000000000000000 ) ) ;
#101 = ORIENTED_EDGE ( 'NONE', *, *, #184, .F. ) ;
#102 = PRODUCT_DEFINITION_CONTEXT ( 'detailed design', #222, 'design' ) ;
#103 = VERTEX_POINT ( 'NONE', #87 ) ;
#104 =( LENGTH_UNIT ( ) NAMED_UNIT ( * ) SI_UNIT ( .MILLI., .METRE. ) );
#105 = ORIENTED_EDGE ( 'NONE', *, *, #192, .F. ) ;
#106 = ORIENTED_EDGE ( 'NONE', *, *, #122, .T. ) ;
#107 = AXIS2_PLACEMENT_3D ( 'NONE', #352, #251, #357 ) ;
#108 = LINE ( 'NONE', #61, #255 ) ;
#109 = DIRECTION ( 'NONE',  ( 0.000000000000000000, 0.000000000000000000, 1.000000000000000000 ) ) ;
#110 = SHAPE_REPRESENTATION ( 'PS40S2 \X2\041f0440043e04440438043b044c\X0\ \X2\0430043b044e043c0438043d043804350432044b0439\X0\, \X2\043a043204300434044004300442\X0\ 40x40x2 (\X2\041104350437\X0\ \X2\043f043e043a0440044b04420438044f\X0\)_00', ( #171 ), #242 ) ;
#111 = CARTESIAN_POINT ( 'NONE',  ( -18.00000000000000355, 18.00000000000000355, 0.000000000000000000 ) ) ;
#112 = LINE ( 'NONE', #19, #130 ) ;
#113 = LINE ( 'NONE', #225, #202 ) ;
#114 = CARTESIAN_POINT ( 'NONE',  ( -20.00000000000000000, -20.00000000000000000, 1000.000000000000000 ) ) ;
#115 =( GEOMETRIC_REPRESENTATION_CONTEXT ( 3 ) GLOBAL_UNCERTAINTY_ASSIGNED_CONTEXT ( ( #240 ) ) GLOBAL_UNIT_ASSIGNED_CONTEXT ( ( #198, #64, #286 ) ) REPRESENTATION_CONTEXT ( 'NONE', 'WORKASPACE' ) );
#116 = LINE ( 'NONE', #111, #24 ) ;
#117 = LINE ( 'NONE', #178, #31 ) ;
#118 = DIRECTION ( 'NONE',  ( -0.000000000000000000, -1.000000000000000000, -0.000000000000000000 ) ) ;
#119 = VERTEX_POINT ( 'NONE', #280 ) ;
#120 = STYLED_ITEM ( 'NONE', ( #39 ), #232 ) ;
#121 = ADVANCED_FACE ( 'NONE', ( #197 ), #2, .T. ) ;
#122 = EDGE_CURVE ( 'NONE', #150, #233, #32, .T. ) ;
#123 = EDGE_LOOP ( 'NONE', ( #315, #70, #105, #189 ) ) ;
#124 = ORIENTED_EDGE ( 'NONE', *, *, #133, .F. ) ;
#125 = AXIS2_PLACEMENT_3D ( 'NONE', #243, #109, #83 ) ;
#126 = DIRECTION ( 'NONE',  ( 0.000000000000000000, -0.000000000000000000, -1.000000000000000000 ) ) ;
#127 = PRODUCT ( 'PS40S2 \X2\041f0440043e04440438043b044c\X0\ \X2\0430043b044e043c0438043d043804350432044b0439\X0\, \X2\043a043204300434044004300442\X0\ 40x40x2 (\X2\041104350437\X0\ \X2\043f043e043a0440044b04420438044f\X0\)_00', 'PS40S2 \X2\041f0440043e04440438043b044c\X0\ \X2\0430043b044e043c0438043d043804350432044b0439\X0\, \X2\043a043204300434044004300442\X0\ 40x40x2 (\X2\041104350437\X0\ \X2\043f043e043a0440044b04420438044f\X0\)_00', '', ( #271 ) ) ;
#128 = ORIENTED_EDGE ( 'NONE', *, *, #59, .T. ) ;
#129 = FACE_OUTER_BOUND ( 'NONE', #73, .T. ) ;
#130 = VECTOR ( 'NONE', #276, 1000.000000000000000 ) ;
#131 = ITEM_DEFINED_TRANSFORMATION ( 'NONE', 'NONE', #125,  #171 ) ;
#132 = ORIENTED_EDGE ( 'NONE', *, *, #312, .T. ) ;
#133 = EDGE_CURVE ( 'NONE', #35, #233, #335, .T. ) ;
#134 = ORIENTED_EDGE ( 'NONE', *, *, #210, .T. ) ;
#135 = ORIENTED_EDGE ( 'NONE', *, *, #133, .T. ) ;
#136 = FACE_OUTER_BOUND ( 'NONE', #288, .T. ) ;
#137 = PLANE ( 'NONE',  #231 ) ;
#138 = DIRECTION ( 'NONE',  ( -0.000000000000000000, -0.000000000000000000, -1.000000000000000000 ) ) ;
#139 = VECTOR ( 'NONE', #302, 1000.000000000000000 ) ;
#140 = DIRECTION ( 'NONE',  ( -0.000000000000000000, -0.000000000000000000, -1.000000000000000000 ) ) ;
#141 = VECTOR ( 'NONE', #181, 1000.000000000000000 ) ;
#142 = SURFACE_STYLE_FILL_AREA ( #316 ) ;
#143 = FACE_BOUND ( 'NONE', #123, .T. ) ;
#144 = ADVANCED_FACE ( 'NONE', ( #136, #57 ), #84, .T. ) ;
#145 = AXIS2_PLACEMENT_3D ( 'NONE', #67, #267, #12 ) ;
#146 = ORIENTED_EDGE ( 'NONE', *, *, #46, .T. ) ;
#147 = PRODUCT_DEFINITION ( 'UNKNOWN', '', #157, #102 ) ;
#148 = ORIENTED_EDGE ( 'NONE', *, *, #85, .T. ) ;
#149 = CARTESIAN_POINT ( 'NONE',  ( -18.00000000000000355, -18.00000000000000355, 0.000000000000000000 ) ) ;
#150 = VERTEX_POINT ( 'NONE', #193 ) ;
#151 = LINE ( 'NONE', #183, #293 ) ;
#152 = ORIENTED_EDGE ( 'NONE', *, *, #50, .F. ) ;
#153 = UNCERTAINTY_MEASURE_WITH_UNIT (LENGTH_MEASURE( 1.000000000000000082E-05 ), #245, 'distance_accuracy_value', 'NONE');
#154 = VERTEX_POINT ( 'NONE', #285 ) ;
#155 = ADVANCED_FACE ( 'NONE', ( #219 ), #137, .F. ) ;
#156 = EDGE_LOOP ( 'NONE', ( #68, #9, #350, #342 ) ) ;
#157 = PRODUCT_DEFINITION_FORMATION_WITH_SPECIFIED_SOURCE ( 'ANY', '', #45, .NOT_KNOWN. ) ;
#158 = SHAPE_DEFINITION_REPRESENTATION ( #77, #110 ) ;
#159 = ORIENTED_EDGE ( 'NONE', *, *, #351, .F. ) ;
#160 = EDGE_CURVE ( 'NONE', #233, #216, #108, .T. ) ;
#161 = DIRECTION ( 'NONE',  ( 0.000000000000000000, 1.000000000000000000, 0.000000000000000000 ) ) ;
#162 = CARTESIAN_POINT ( 'NONE',  ( 0.000000000000000000, 0.000000000000000000, 0.000000000000000000 ) ) ;
#163 = CARTESIAN_POINT ( 'NONE',  ( 18.00000000000001066, -18.00000000000000355, 1000.000000000000000 ) ) ;
#164 = CARTESIAN_POINT ( 'NONE',  ( 18.00000000000001066, -18.00000000000000355, 0.000000000000000000 ) ) ;
#165 = MECHANICAL_DESIGN_GEOMETRIC_PRESENTATION_REPRESENTATION (  '', ( #120 ), #115 ) ;
#166 = VECTOR ( 'NONE', #82, 1000.000000000000000 ) ;
#167 = DIRECTION ( 'NONE',  ( 0.000000000000000000, -0.000000000000000000, 1.000000000000000000 ) ) ;
#168 = CARTESIAN_POINT ( 'NONE',  ( -18.00000000000000355, -18.00000000000000355, 1000.000000000000000 ) ) ;
#169 = DIRECTION ( 'NONE',  ( 1.000000000000000000, 0.000000000000000000, 0.000000000000000000 ) ) ;
#170 = DIRECTION ( 'NONE',  ( -1.000000000000000000, 0.000000000000000000, -0.000000000000000000 ) ) ;
#171 = AXIS2_PLACEMENT_3D ( 'NONE', #162, #22, #330 ) ;
#172 = ORIENTED_EDGE ( 'NONE', *, *, #195, .T. ) ;
#173 = AXIS2_PLACEMENT_3D ( 'NONE', #79, #47, #323 ) ;
#174 = ADVANCED_FACE ( 'NONE', ( #256 ), #329, .T. ) ;
#175 = EDGE_LOOP ( 'NONE', ( #261, #42, #263, #146 ) ) ;
#176 = PLANE ( 'NONE',  #284 ) ;
#177 = ORIENTED_EDGE ( 'NONE', *, *, #160, .T. ) ;
#178 = CARTESIAN_POINT ( 'NONE',  ( 18.00000000000001066, 18.00000000000000355, 1000.000000000000000 ) ) ;
#179 = CARTESIAN_POINT ( 'NONE',  ( 20.00000000000000000, -20.00000000000000000, 1000.000000000000000 ) ) ;
#180 = APPLICATION_CONTEXT ( 'automotive_design' ) ;
#181 = DIRECTION ( 'NONE',  ( 1.000000000000000000, 0.000000000000000000, 0.000000000000000000 ) ) ;
#182 = CARTESIAN_POINT ( 'NONE',  ( 18.00000000000001066, 18.00000000000000355, 0.000000000000000000 ) ) ;
#183 = CARTESIAN_POINT ( 'NONE',  ( -20.00000000000000000, 20.00000000000000000, 1000.000000000000000 ) ) ;
#184 = EDGE_CURVE ( 'NONE', #20, #119, #3, .T. ) ;
#185 = ORIENTED_EDGE ( 'NONE', *, *, #59, .F. ) ;
#186 = EDGE_CURVE ( 'NONE', #20, #216, #252, .T. ) ;
#187 = ORIENTED_EDGE ( 'NONE', *, *, #122, .F. ) ;
#188 = VECTOR ( 'NONE', #78, 1000.000000000000000 ) ;
#189 = ORIENTED_EDGE ( 'NONE', *, *, #195, .F. ) ;
#190 =( NAMED_UNIT ( * ) PLANE_ANGLE_UNIT ( ) SI_UNIT ( $, .RADIAN. ) );
#191 = CARTESIAN_POINT ( 'NONE',  ( -18.00000000000000355, -18.00000000000000355, 1000.000000000000000 ) ) ;
#192 = EDGE_CURVE ( 'NONE', #208, #294, #113, .T. ) ;
#193 = CARTESIAN_POINT ( 'NONE',  ( -20.00000000000000000, -20.00000000000000000, 1000.000000000000000 ) ) ;
#194 = LINE ( 'NONE', #307, #72 ) ;
#195 = EDGE_CURVE ( 'NONE', #154, #208, #194, .T. ) ;
#196 = DIRECTION ( 'NONE',  ( -1.000000000000000000, 0.000000000000000000, 0.000000000000000000 ) ) ;
#197 = FACE_OUTER_BOUND ( 'NONE', #203, .T. ) ;
#198 =( LENGTH_UNIT ( ) NAMED_UNIT ( * ) SI_UNIT ( .MILLI., .METRE. ) );
#199 = COLOUR_RGB ( '',0.7921568627450980005, 0.8196078431372548767, 0.9333333333333333481 ) ;
#200 = ORIENTED_EDGE ( 'NONE', *, *, #317, .F. ) ;
#201 = ORIENTED_EDGE ( 'NONE', *, *, #341, .F. ) ;
#202 = VECTOR ( 'NONE', #333, 1000.000000000000000 ) ;
#203 = EDGE_LOOP ( 'NONE', ( #65, #185, #172, #132 ) ) ;
#204 = PLANE ( 'NONE',  #334 ) ;
#205 = VERTEX_POINT ( 'NONE', #168 ) ;
#206 = DIRECTION ( 'NONE',  ( 1.000000000000000000, 0.000000000000000000, 0.000000000000000000 ) ) ;
#207 = CARTESIAN_POINT ( 'NONE',  ( -18.00000000000000355, -18.00000000000000355, 1000.000000000000000 ) ) ;
#208 = VERTEX_POINT ( 'NONE', #282 ) ;
#209 = PRODUCT_DEFINITION_FORMATION_WITH_SPECIFIED_SOURCE ( 'ANY', '', #127, .NOT_KNOWN. ) ;
#210 = EDGE_CURVE ( 'NONE', #205, #154, #27, .T. ) ;
#211 = CARTESIAN_POINT ( 'NONE',  ( -20.00000000000000000, -20.00000000000000000, 1000.000000000000000 ) ) ;
#212 = ORIENTED_EDGE ( 'NONE', *, *, #37, .F. ) ;
#213 = ADVANCED_FACE ( 'NONE', ( #310, #143 ), #71, .F. ) ;
#214 = SHAPE_DEFINITION_REPRESENTATION ( #218, #49 ) ;
#215 = LINE ( 'NONE', #325, #188 ) ;
#216 = VERTEX_POINT ( 'NONE', #337 ) ;
#217 = VECTOR ( 'NONE', #118, 1000.000000000000000 ) ;
#218 = PRODUCT_DEFINITION_SHAPE ( 'NONE', 'NONE',  #147 ) ;
#219 = FACE_OUTER_BOUND ( 'NONE', #287, .T. ) ;
#220 = CARTESIAN_POINT ( 'NONE',  ( -20.00000000000000000, 20.00000000000000000, 1000.000000000000000 ) ) ;
#221 = ADVANCED_FACE ( 'NONE', ( #8 ), #93, .T. ) ;
#222 = APPLICATION_CONTEXT ( 'automotive_design' ) ;
#223 = DIRECTION ( 'NONE',  ( -1.000000000000000000, 0.000000000000000000, 0.000000000000000000 ) ) ;
#224 = APPLICATION_PROTOCOL_DEFINITION ( 'draft international standard', 'automotive_design', 1998, #222 ) ;
#225 = CARTESIAN_POINT ( 'NONE',  ( -18.00000000000000355, 18.00000000000000355, 1000.000000000000000 ) ) ;
#226 = EDGE_CURVE ( 'NONE', #103, #35, #151, .T. ) ;
#227 = DIRECTION ( 'NONE',  ( -0.000000000000000000, -0.000000000000000000, -1.000000000000000000 ) ) ;
#228 = CARTESIAN_POINT ( 'NONE',  ( -20.00000000000000000, -20.00000000000000000, 0.000000000000000000 ) ) ;
#229 = DIRECTION ( 'NONE',  ( 0.000000000000000000, 0.000000000000000000, -1.000000000000000000 ) ) ;
#230 = FACE_OUTER_BOUND ( 'NONE', #270, .T. ) ;
#231 = AXIS2_PLACEMENT_3D ( 'NONE', #283, #308, #358 ) ;
#232 = MANIFOLD_SOLID_BREP ( '\X2\0411043e0431044b0448043a0430\X0\-\X2\0412044b0442044f043d04430442044c\X0\1', #63 ) ;
#233 = VERTEX_POINT ( 'NONE', #33 ) ;
#234 = VECTOR ( 'NONE', #140, 1000.000000000000000 ) ;
#235 = VECTOR ( 'NONE', #274, 1000.000000000000000 ) ;
#236 = DIRECTION ( 'NONE',  ( -0.000000000000000000, -0.000000000000000000, -1.000000000000000000 ) ) ;
#237 = LINE ( 'NONE', #149, #349 ) ;
#238 = ORIENTED_EDGE ( 'NONE', *, *, #66, .F. ) ;
#239 = SURFACE_STYLE_USAGE ( .BOTH. , #257 ) ;
#240 = UNCERTAINTY_MEASURE_WITH_UNIT (LENGTH_MEASURE( 1.000000000000000082E-05 ), #198, 'distance_accuracy_value', 'NONE');
#241 = ORIENTED_EDGE ( 'NONE', *, *, #226, .F. ) ;
#242 =( GEOMETRIC_REPRESENTATION_CONTEXT ( 3 ) GLOBAL_UNCERTAINTY_ASSIGNED_CONTEXT ( ( #153 ) ) GLOBAL_UNIT_ASSIGNED_CONTEXT ( ( #245, #190, #326 ) ) REPRESENTATION_CONTEXT ( 'NONE', 'WORKASPACE' ) );
#243 = CARTESIAN_POINT ( 'NONE',  ( 996.7489301358025386, 1006.409766940549389, 496.8423446063967504 ) ) ;
#244 = CARTESIAN_POINT ( 'NONE',  ( -20.00000000000000000, 20.00000000000000000, 0.000000000000000000 ) ) ;
#245 =( LENGTH_UNIT ( ) NAMED_UNIT ( * ) SI_UNIT ( .MILLI., .METRE. ) );
#246 = VERTEX_POINT ( 'NONE', #98 ) ;
#247 =( NAMED_UNIT ( * ) SI_UNIT ( $, .STERADIAN. ) SOLID_ANGLE_UNIT ( ) );
#248 = CARTESIAN_POINT ( 'NONE',  ( 0.000000000000000000, 0.000000000000000000, 0.000000000000000000 ) ) ;
#249 = PRODUCT_CONTEXT ( 'NONE', #25, 'mechanical' ) ;
#250 = FACE_OUTER_BOUND ( 'NONE', #262, .T. ) ;
#251 = DIRECTION ( 'NONE',  ( 0.000000000000000000, 0.000000000000000000, 1.000000000000000000 ) ) ;
#252 = LINE ( 'NONE', #26, #319 ) ;
#253 = EDGE_CURVE ( 'NONE', #80, #35, #4, .T. ) ;
#254 = LINE ( 'NONE', #191, #328 ) ;
#255 = VECTOR ( 'NONE', #169, 1000.000000000000000 ) ;
#256 = FACE_OUTER_BOUND ( 'NONE', #76, .T. ) ;
#257 = SURFACE_SIDE_STYLE ('',( #142 ) ) ;
#258 = CARTESIAN_POINT ( 'NONE',  ( -20.00000000000000000, 20.00000000000000000, 0.000000000000000000 ) ) ;
#259 = EDGE_CURVE ( 'NONE', #294, #205, #10, .T. ) ;
#260 = AXIS2_PLACEMENT_3D ( 'NONE', #306, #58, #167 ) ;
#261 = ORIENTED_EDGE ( 'NONE', *, *, #184, .T. ) ;
#262 = EDGE_LOOP ( 'NONE', ( #48, #159, #101, #95 ) ) ;
#263 = ORIENTED_EDGE ( 'NONE', *, *, #28, .T. ) ;
#264 = DIRECTION ( 'NONE',  ( -0.000000000000000000, -1.000000000000000000, -0.000000000000000000 ) ) ;
#265 =( GEOMETRIC_REPRESENTATION_CONTEXT ( 3 ) GLOBAL_UNCERTAINTY_ASSIGNED_CONTEXT ( ( #14 ) ) GLOBAL_UNIT_ASSIGNED_CONTEXT ( ( #104, #54, #247 ) ) REPRESENTATION_CONTEXT ( 'NONE', 'WORKASPACE' ) );
#266 = ORIENTED_EDGE ( 'NONE', *, *, #160, .F. ) ;
#267 = DIRECTION ( 'NONE',  ( 0.000000000000000000, -1.000000000000000000, 0.000000000000000000 ) ) ;
#268 = ORIENTED_EDGE ( 'NONE', *, *, #317, .T. ) ;
#269 = FILL_AREA_STYLE_COLOUR ( '', #199 ) ;
#270 = EDGE_LOOP ( 'NONE', ( #322, #241, #201, #340 ) ) ;
#271 = PRODUCT_CONTEXT ( 'NONE', #180, 'mechanical' ) ;
#272 = PLANE ( 'NONE',  #96 ) ;
#273 = EDGE_LOOP ( 'NONE', ( #135, #187, #345, #327 ) ) ;
#274 = DIRECTION ( 'NONE',  ( 0.000000000000000000, 1.000000000000000000, 0.000000000000000000 ) ) ;
#275 = CARTESIAN_POINT ( 'NONE',  ( -18.00000000000000355, -18.00000000000000355, 0.000000000000000000 ) ) ;
#276 = DIRECTION ( 'NONE',  ( -0.000000000000000000, -0.000000000000000000, -1.000000000000000000 ) ) ;
#277 = CARTESIAN_POINT ( 'NONE',  ( 18.00000000000001066, -18.00000000000000355, 1000.000000000000000 ) ) ;
#278 = AXIS2_PLACEMENT_3D ( 'NONE', #248, #309, #170 ) ;
#279 = ADVANCED_FACE ( 'NONE', ( #230 ), #176, .F. ) ;
#280 = CARTESIAN_POINT ( 'NONE',  ( 20.00000000000000000, 20.00000000000000000, 1000.000000000000000 ) ) ;
#281 = ADVANCED_FACE ( 'NONE', ( #94 ), #204, .F. ) ;
#282 = CARTESIAN_POINT ( 'NONE',  ( 18.00000000000001066, 18.00000000000000355, 1000.000000000000000 ) ) ;
#283 = CARTESIAN_POINT ( 'NONE',  ( -20.00000000000000000, -20.00000000000000000, 1000.000000000000000 ) ) ;
#284 = AXIS2_PLACEMENT_3D ( 'NONE', #297, #339, #126 ) ;
#285 = CARTESIAN_POINT ( 'NONE',  ( 18.00000000000001066, -18.00000000000000355, 1000.000000000000000 ) ) ;
#286 =( NAMED_UNIT ( * ) SI_UNIT ( $, .STERADIAN. ) SOLID_ANGLE_UNIT ( ) );
#287 = EDGE_LOOP ( 'NONE', ( #177, #298, #348, #106 ) ) ;
#288 = EDGE_LOOP ( 'NONE', ( #212, #266, #124, #44 ) ) ;
#289 = EDGE_CURVE ( 'NONE', #320, #38, #237, .T. ) ;
#290 = DIRECTION ( 'NONE',  ( 0.000000000000000000, 0.000000000000000000, -1.000000000000000000 ) ) ;
#291 = ORIENTED_EDGE ( 'NONE', *, *, #192, .T. ) ;
#292 = DIRECTION ( 'NONE',  ( -0.000000000000000000, -0.000000000000000000, -1.000000000000000000 ) ) ;
#293 = VECTOR ( 'NONE', #236, 1000.000000000000000 ) ;
#294 = VERTEX_POINT ( 'NONE', #69 ) ;
#295 = CARTESIAN_POINT ( 'NONE',  ( 0.000000000000000000, 0.000000000000000000, 1000.000000000000000 ) ) ;
#296 = LINE ( 'NONE', #15, #139 ) ;
#297 = CARTESIAN_POINT ( 'NONE',  ( -20.00000000000000000, 20.00000000000000000, 1000.000000000000000 ) ) ;
#298 = ORIENTED_EDGE ( 'NONE', *, *, #186, .F. ) ;
#299 = CARTESIAN_POINT ( 'NONE',  ( -18.00000000000000355, -18.00000000000000355, 0.000000000000000000 ) ) ;
#300 = VECTOR ( 'NONE', #92, 1000.000000000000000 ) ;
#301 = PRODUCT_DEFINITION_SHAPE ( 'NONE', 'NONE',  #360 ) ;
#302 = DIRECTION ( 'NONE',  ( -0.000000000000000000, -1.000000000000000000, -0.000000000000000000 ) ) ;
#303 = DIRECTION ( 'NONE',  ( -1.000000000000000000, -0.000000000000000000, -0.000000000000000000 ) ) ;
#304 = LINE ( 'NONE', #277, #234 ) ;
#305 = SHAPE_REPRESENTATION_RELATIONSHIP ( 'NONE' , 'NONE' ,  #110, #88 ) ;
#306 = CARTESIAN_POINT ( 'NONE',  ( -18.00000000000000355, -18.00000000000000355, 1000.000000000000000 ) ) ;
#307 = CARTESIAN_POINT ( 'NONE',  ( 18.00000000000001066, -18.00000000000000355, 1000.000000000000000 ) ) ;
#308 = DIRECTION ( 'NONE',  ( 0.000000000000000000, 1.000000000000000000, 0.000000000000000000 ) ) ;
#309 = DIRECTION ( 'NONE',  ( 0.000000000000000000, 0.000000000000000000, -1.000000000000000000 ) ) ;
#310 = FACE_OUTER_BOUND ( 'NONE', #175, .T. ) ;
#311 =( REPRESENTATION_RELATIONSHIP ('NONE','NONE', #49, #110 ) REPRESENTATION_RELATIONSHIP_WITH_TRANSFORMATION ( #131 )SHAPE_REPRESENTATION_RELATIONSHIP( ) );
#312 = EDGE_CURVE ( 'NONE', #208, #11, #117, .T. ) ;
#313 = DIRECTION ( 'NONE',  ( 1.000000000000000000, 0.000000000000000000, 0.000000000000000000 ) ) ;
#314 = DIRECTION ( 'NONE',  ( -1.000000000000000000, -0.000000000000000000, -0.000000000000000000 ) ) ;
#315 = ORIENTED_EDGE ( 'NONE', *, *, #210, .F. ) ;
#316 = FILL_AREA_STYLE ('',( #269 ) ) ;
#317 = EDGE_CURVE ( 'NONE', #294, #320, #347, .T. ) ;
#318 = AXIS2_PLACEMENT_3D ( 'NONE', #90, #223, #331 ) ;
#319 = VECTOR ( 'NONE', #1, 1000.000000000000000 ) ;
#320 = VERTEX_POINT ( 'NONE', #75 ) ;
#321 = DIRECTION ( 'NONE',  ( -0.000000000000000000, -0.000000000000000000, -1.000000000000000000 ) ) ;
#322 = ORIENTED_EDGE ( 'NONE', *, *, #253, .T. ) ;
#323 = DIRECTION ( 'NONE',  ( 1.000000000000000000, 0.000000000000000000, 0.000000000000000000 ) ) ;
#324 = EDGE_CURVE ( 'NONE', #246, #11, #51, .T. ) ;
#325 = CARTESIAN_POINT ( 'NONE',  ( -20.00000000000000000, -20.00000000000000000, 1000.000000000000000 ) ) ;
#326 =( NAMED_UNIT ( * ) SI_UNIT ( $, .STERADIAN. ) SOLID_ANGLE_UNIT ( ) );
#327 = ORIENTED_EDGE ( 'NONE', *, *, #226, .T. ) ;
#328 = VECTOR ( 'NONE', #138, 1000.000000000000000 ) ;
#329 = PLANE ( 'NONE',  #260 ) ;
#330 = DIRECTION ( 'NONE',  ( 1.000000000000000000, 0.000000000000000000, 0.000000000000000000 ) ) ;
#331 = DIRECTION ( 'NONE',  ( 0.000000000000000000, 0.000000000000000000, 1.000000000000000000 ) ) ;
#332 = APPLICATION_PROTOCOL_DEFINITION ( 'draft international standard', 'automotive_design', 1998, #180 ) ;
#333 = DIRECTION ( 'NONE',  ( -1.000000000000000000, -0.000000000000000000, -0.000000000000000000 ) ) ;
#334 = AXIS2_PLACEMENT_3D ( 'NONE', #211, #313, #290 ) ;
#335 = LINE ( 'NONE', #228, #300 ) ;
#336 = CARTESIAN_POINT ( 'NONE',  ( 20.00000000000000000, -20.00000000000000000, 1000.000000000000000 ) ) ;
#337 = CARTESIAN_POINT ( 'NONE',  ( 20.00000000000000000, -20.00000000000000000, 0.000000000000000000 ) ) ;
#338 = AXIS2_PLACEMENT_3D ( 'NONE', #163, #196, #23 ) ;
#339 = DIRECTION ( 'NONE',  ( 0.000000000000000000, -1.000000000000000000, 0.000000000000000000 ) ) ;
#340 = ORIENTED_EDGE ( 'NONE', *, *, #351, .T. ) ;
#341 = EDGE_CURVE ( 'NONE', #119, #103, #86, .T. ) ;
#342 = ORIENTED_EDGE ( 'NONE', *, *, #66, .T. ) ;
#343 = VECTOR ( 'NONE', #161, 1000.000000000000000 ) ;
#344 = AXIS2_PLACEMENT_3D ( 'NONE', #295, #229, #43 ) ;
#345 = ORIENTED_EDGE ( 'NONE', *, *, #28, .F. ) ;
#346 = ORIENTED_EDGE ( 'NONE', *, *, #289, .F. ) ;
#347 = LINE ( 'NONE', #100, #5 ) ;
#348 = ORIENTED_EDGE ( 'NONE', *, *, #46, .F. ) ;
#349 = VECTOR ( 'NONE', #264, 1000.000000000000000 ) ;
#350 = ORIENTED_EDGE ( 'NONE', *, *, #324, .T. ) ;
#351 = EDGE_CURVE ( 'NONE', #119, #80, #112, .T. ) ;
#352 = CARTESIAN_POINT ( 'NONE',  ( 0.000000000000000000, 0.000000000000000000, 0.000000000000000000 ) ) ;
#353 = PRODUCT_DEFINITION_CONTEXT ( 'detailed design', #56, 'design' ) ;
#354 = CARTESIAN_POINT ( 'NONE',  ( 20.00000000000000000, -20.00000000000000000, 0.000000000000000000 ) ) ;
#355 = PRODUCT_RELATED_PRODUCT_CATEGORY ( 'part', '', ( #45 ) ) ;
#356 = CARTESIAN_POINT ( 'NONE',  ( -18.00000000000000355, -18.00000000000000355, 1000.000000000000000 ) ) ;
#357 = DIRECTION ( 'NONE',  ( 1.000000000000000000, 0.000000000000000000, 0.000000000000000000 ) ) ;
#358 = DIRECTION ( 'NONE',  ( 0.000000000000000000, -0.000000000000000000, 1.000000000000000000 ) ) ;
#359 = DIRECTION ( 'NONE',  ( -1.000000000000000000, -0.000000000000000000, -0.000000000000000000 ) ) ;
#360 = NEXT_ASSEMBLY_USAGE_OCCURRENCE ( 'NAUO1', ' ', ' ', #147, #17, $ ) ;
ENDSEC;
END-ISO-10303-21;
