ISO-10303-21;
HEADER;
FILE_DESCRIPTION (( 'STEP AP214' ),
    '1' );
FILE_NAME ('Ñáîðêà11.STEP',
    '2024-12-06T07:13:37',
    ( '' ),
    ( '' ),
    'SwSTEP 2.0',
    'SolidWorks 2024',
    '' );
FILE_SCHEMA (( 'AUTOMOTIVE_DESIGN' ));
ENDSEC;

DATA;
#1 = ORIENTED_EDGE ( 'NONE', *, *, #11, .F. ) ;
#2 = CARTESIAN_POINT ( 'NONE',  ( -25.00000000000000000, -2.000000000000000000, 1000.000000000000000 ) ) ;
#3 = UNCERTAINTY_MEASURE_WITH_UNIT (LENGTH_MEASURE( 1.000000000000000082E-05 ), #68, 'distance_accuracy_value', 'NONE');
#4 = ORIENTED_EDGE ( 'NONE', *, *, #138, .F. ) ;
#5 = ORIENTED_EDGE ( 'NONE', *, *, #215, .F. ) ;
#6 = ADVANCED_FACE ( 'NONE', ( #73 ), #192, .F. ) ;
#7 = ORIENTED_EDGE ( 'NONE', *, *, #58, .F. ) ;
#8 = CARTESIAN_POINT ( 'NONE',  ( 25.00000000000000000, 2.000000000000000000, 1000.000000000000000 ) ) ;
#9 = MANIFOLD_SOLID_BREP ( '\X2\0411043e0431044b0448043a0430\X0\-\X2\0412044b0442044f043d04430442044c\X0\1', #130 ) ;
#10 = DIRECTION ( 'NONE',  ( -1.000000000000000000, 0.000000000000000000, -0.000000000000000000 ) ) ;
#11 = EDGE_CURVE ( 'NONE', #44, #49, #97, .T. ) ;
#12 = DIRECTION ( 'NONE',  ( -0.000000000000000000, -0.000000000000000000, -1.000000000000000000 ) ) ;
#13 = CARTESIAN_POINT ( 'NONE',  ( 25.00000000000000000, -2.000000000000000000, 0.000000000000000000 ) ) ;
#14 = VECTOR ( 'NONE', #191, 1000.000000000000000 ) ;
#15 = ORIENTED_EDGE ( 'NONE', *, *, #92, .T. ) ;
#16 = DIRECTION ( 'NONE',  ( 0.000000000000000000, 0.000000000000000000, 1.000000000000000000 ) ) ;
#17 = ORIENTED_EDGE ( 'NONE', *, *, #60, .F. ) ;
#18 =( LENGTH_UNIT ( ) NAMED_UNIT ( * ) SI_UNIT ( .MILLI., .METRE. ) );
#19 = ORIENTED_EDGE ( 'NONE', *, *, #202, .T. ) ;
#20 = PRODUCT_DEFINITION ( 'UNKNOWN', '', #96, #38 ) ;
#21 = VECTOR ( 'NONE', #12, 1000.000000000000000 ) ;
#22 = EDGE_CURVE ( 'NONE', #49, #156, #209, .T. ) ;
#23 = CARTESIAN_POINT ( 'NONE',  ( 25.00000000000000000, -2.000000000000000000, 1000.000000000000000 ) ) ;
#24 = DIRECTION ( 'NONE',  ( 0.000000000000000000, -1.000000000000000000, 0.000000000000000000 ) ) ;
#25 = LINE ( 'NONE', #203, #161 ) ;
#26 = DIRECTION ( 'NONE',  ( -0.000000000000000000, -0.000000000000000000, -1.000000000000000000 ) ) ;
#27 = UNCERTAINTY_MEASURE_WITH_UNIT (LENGTH_MEASURE( 1.000000000000000082E-05 ), #48, 'distance_accuracy_value', 'NONE');
#28 =( GEOMETRIC_REPRESENTATION_CONTEXT ( 3 ) GLOBAL_UNCERTAINTY_ASSIGNED_CONTEXT ( ( #27 ) ) GLOBAL_UNIT_ASSIGNED_CONTEXT ( ( #48, #30, #136 ) ) REPRESENTATION_CONTEXT ( 'NONE', 'WORKASPACE' ) );
#29 = VERTEX_POINT ( 'NONE', #8 ) ;
#30 =( NAMED_UNIT ( * ) PLANE_ANGLE_UNIT ( ) SI_UNIT ( $, .RADIAN. ) );
#31 = LINE ( 'NONE', #170, #126 ) ;
#32 = VERTEX_POINT ( 'NONE', #181 ) ;
#33 = SHAPE_REPRESENTATION ( '\X2\04210431043e0440043a0430\X0\11', ( #157, #168 ), #28 ) ;
#34 = ORIENTED_EDGE ( 'NONE', *, *, #22, .T. ) ;
#35 = SURFACE_STYLE_USAGE ( .BOTH. , #194 ) ;
#36 =( GEOMETRIC_REPRESENTATION_CONTEXT ( 3 ) GLOBAL_UNCERTAINTY_ASSIGNED_CONTEXT ( ( #116 ) ) GLOBAL_UNIT_ASSIGNED_CONTEXT ( ( #18, #74, #62 ) ) REPRESENTATION_CONTEXT ( 'NONE', 'WORKASPACE' ) );
#37 = CARTESIAN_POINT ( 'NONE',  ( -25.00000000000000000, -2.000000000000000000, 0.000000000000000000 ) ) ;
#38 = PRODUCT_DEFINITION_CONTEXT ( 'detailed design', #210, 'design' ) ;
#39 = FACE_OUTER_BOUND ( 'NONE', #53, .T. ) ;
#40 = FACE_OUTER_BOUND ( 'NONE', #214, .T. ) ;
#41 = DIRECTION ( 'NONE',  ( -0.000000000000000000, -1.000000000000000000, -0.000000000000000000 ) ) ;
#42 = LINE ( 'NONE', #216, #65 ) ;
#43 = CARTESIAN_POINT ( 'NONE',  ( -25.00000000000000000, 2.000000000000000000, 1000.000000000000000 ) ) ;
#44 = VERTEX_POINT ( 'NONE', #94 ) ;
#45 =( NAMED_UNIT ( * ) SI_UNIT ( $, .STERADIAN. ) SOLID_ANGLE_UNIT ( ) );
#46 = CARTESIAN_POINT ( 'NONE',  ( 0.000000000000000000, 0.000000000000000000, 0.000000000000000000 ) ) ;
#47 = FILL_AREA_STYLE_COLOUR ( '', #135 ) ;
#48 =( LENGTH_UNIT ( ) NAMED_UNIT ( * ) SI_UNIT ( .MILLI., .METRE. ) );
#49 = VERTEX_POINT ( 'NONE', #101 ) ;
#50 = AXIS2_PLACEMENT_3D ( 'NONE', #137, #118, #71 ) ;
#51 = PRODUCT_DEFINITION_SHAPE ( 'NONE', 'NONE',  #20 ) ;
#52 = DIRECTION ( 'NONE',  ( 1.000000000000000000, 0.000000000000000000, 0.000000000000000000 ) ) ;
#53 = EDGE_LOOP ( 'NONE', ( #86, #213, #139, #19 ) ) ;
#54 = CARTESIAN_POINT ( 'NONE',  ( 25.00000000000000000, -2.000000000000000000, 1000.000000000000000 ) ) ;
#55 = ORIENTED_EDGE ( 'NONE', *, *, #79, .F. ) ;
#56 = AXIS2_PLACEMENT_3D ( 'NONE', #149, #24, #131 ) ;
#57 = DIRECTION ( 'NONE',  ( 0.000000000000000000, 1.000000000000000000, 0.000000000000000000 ) ) ;
#58 = EDGE_CURVE ( 'NONE', #109, #44, #114, .T. ) ;
#59 = PRODUCT ( '\X2\04210431043e0440043a0430\X0\11', '\X2\04210431043e0440043a0430\X0\11', '', ( #172 ) ) ;
#60 = EDGE_CURVE ( 'NONE', #144, #156, #115, .T. ) ;
#61 = AXIS2_PLACEMENT_3D ( 'NONE', #46, #151, #152 ) ;
#62 =( NAMED_UNIT ( * ) SI_UNIT ( $, .STERADIAN. ) SOLID_ANGLE_UNIT ( ) );
#63 = PRODUCT_RELATED_PRODUCT_CATEGORY ( 'part', '', ( #59 ) ) ;
#64 = CARTESIAN_POINT ( 'NONE',  ( 25.00000000000000000, 2.000000000000000000, 0.000000000000000000 ) ) ;
#65 = VECTOR ( 'NONE', #57, 1000.000000000000000 ) ;
#66 = PLANE ( 'NONE',  #150 ) ;
#67 = APPLICATION_PROTOCOL_DEFINITION ( 'draft international standard', 'automotive_design', 1998, #160 ) ;
#68 =( LENGTH_UNIT ( ) NAMED_UNIT ( * ) SI_UNIT ( .MILLI., .METRE. ) );
#69 = ITEM_DEFINED_TRANSFORMATION ( 'NONE', 'NONE', #168,  #50 ) ;
#70 = EDGE_LOOP ( 'NONE', ( #107, #88, #186, #143 ) ) ;
#71 = DIRECTION ( 'NONE',  ( 1.000000000000000000, 0.000000000000000000, 0.000000000000000000 ) ) ;
#72 = VECTOR ( 'NONE', #220, 1000.000000000000000 ) ;
#73 = FACE_OUTER_BOUND ( 'NONE', #106, .T. ) ;
#74 =( NAMED_UNIT ( * ) PLANE_ANGLE_UNIT ( ) SI_UNIT ( $, .RADIAN. ) );
#75 = CARTESIAN_POINT ( 'NONE',  ( -25.00000000000000000, 2.000000000000000000, 1000.000000000000000 ) ) ;
#76 = VECTOR ( 'NONE', #199, 1000.000000000000000 ) ;
#77 = LINE ( 'NONE', #75, #141 ) ;
#78 = DIRECTION ( 'NONE',  ( -0.000000000000000000, -1.000000000000000000, -0.000000000000000000 ) ) ;
#79 = EDGE_CURVE ( 'NONE', #32, #124, #133, .T. ) ;
#80 = CARTESIAN_POINT ( 'NONE',  ( 0.000000000000000000, 0.000000000000000000, 0.000000000000000000 ) ) ;
#81 = SHAPE_REPRESENTATION ( 'SH50S4X \X2\0410043b044e043c0438043d0438043504320430044f\X0\ \X2\043f043e043b043e04410430\X0\ \X2\04100414\X0\31\X2\0422\X0\ 50\X2\0445\X0\4 (\X2\041104350437\X0\ \X2\043f043e043a0440044b04420438044f\X0\)_50\X2\0445\X0\4', ( #50 ), #200 ) ;
#82 = AXIS2_PLACEMENT_3D ( 'NONE', #54, #125, #93 ) ;
#83 = SHAPE_DEFINITION_REPRESENTATION ( #198, #33 ) ;
#84 = SHAPE_REPRESENTATION_RELATIONSHIP ( 'NONE' , 'NONE' ,  #81, #91 ) ;
#85 = DIRECTION ( 'NONE',  ( 0.000000000000000000, -0.000000000000000000, 1.000000000000000000 ) ) ;
#86 = ORIENTED_EDGE ( 'NONE', *, *, #177, .T. ) ;
#87 = DIRECTION ( 'NONE',  ( -1.000000000000000000, -0.000000000000000000, -0.000000000000000000 ) ) ;
#88 = ORIENTED_EDGE ( 'NONE', *, *, #92, .F. ) ;
#89 = ADVANCED_FACE ( 'NONE', ( #110 ), #127, .F. ) ;
#90 = ORIENTED_EDGE ( 'NONE', *, *, #108, .F. ) ;
#91 = ADVANCED_BREP_SHAPE_REPRESENTATION ( '', ( #9, #50 ), #200 ) ;
#92 = EDGE_CURVE ( 'NONE', #32, #44, #77, .T. ) ;
#93 = DIRECTION ( 'NONE',  ( 0.000000000000000000, 0.000000000000000000, 1.000000000000000000 ) ) ;
#94 = CARTESIAN_POINT ( 'NONE',  ( -25.00000000000000000, 2.000000000000000000, 0.000000000000000000 ) ) ;
#95 = PRESENTATION_LAYER_ASSIGNMENT (  '', '', ( #221 ) ) ;
#96 = PRODUCT_DEFINITION_FORMATION_WITH_SPECIFIED_SOURCE ( 'ANY', '', #180, .NOT_KNOWN. ) ;
#97 = LINE ( 'NONE', #37, #154 ) ;
#98 = DIRECTION ( 'NONE',  ( 1.000000000000000000, 0.000000000000000000, 0.000000000000000000 ) ) ;
#99 = APPLICATION_CONTEXT ( 'automotive_design' ) ;
#100 = DIRECTION ( 'NONE',  ( -1.000000000000000000, 0.000000000000000000, -0.000000000000000000 ) ) ;
#101 = CARTESIAN_POINT ( 'NONE',  ( -25.00000000000000000, -2.000000000000000000, 0.000000000000000000 ) ) ;
#102 = CARTESIAN_POINT ( 'NONE',  ( 996.7489301358025386, 1006.409766940549389, 496.8423446063967504 ) ) ;
#103 = MECHANICAL_DESIGN_GEOMETRIC_PRESENTATION_REPRESENTATION (  '', ( #221 ), #36 ) ;
#104 = EDGE_LOOP ( 'NONE', ( #5, #189, #1, #7 ) ) ;
#105 = DIRECTION ( 'NONE',  ( 0.000000000000000000, 0.000000000000000000, 1.000000000000000000 ) ) ;
#106 = EDGE_LOOP ( 'NONE', ( #159, #4, #173, #176 ) ) ;
#107 = ORIENTED_EDGE ( 'NONE', *, *, #58, .T. ) ;
#108 = EDGE_CURVE ( 'NONE', #124, #49, #185, .T. ) ;
#109 = VERTEX_POINT ( 'NONE', #64 ) ;
#110 = FACE_OUTER_BOUND ( 'NONE', #70, .T. ) ;
#111 = PLANE ( 'NONE',  #112 ) ;
#112 = AXIS2_PLACEMENT_3D ( 'NONE', #219, #98, #184 ) ;
#113 = DIRECTION ( 'NONE',  ( 0.000000000000000000, 1.000000000000000000, 0.000000000000000000 ) ) ;
#114 = LINE ( 'NONE', #145, #174 ) ;
#115 = LINE ( 'NONE', #162, #21 ) ;
#116 = UNCERTAINTY_MEASURE_WITH_UNIT (LENGTH_MEASURE( 1.000000000000000082E-05 ), #18, 'distance_accuracy_value', 'NONE');
#117 = ADVANCED_FACE ( 'NONE', ( #204 ), #111, .F. ) ;
#118 = DIRECTION ( 'NONE',  ( 0.000000000000000000, 0.000000000000000000, 1.000000000000000000 ) ) ;
#119 = AXIS2_PLACEMENT_3D ( 'NONE', #201, #113, #85 ) ;
#120 = EDGE_LOOP ( 'NONE', ( #158, #90, #55, #15 ) ) ;
#121 = SHAPE_DEFINITION_REPRESENTATION ( #51, #81 ) ;
#122 = FILL_AREA_STYLE ('',( #47 ) ) ;
#123 = ORIENTED_EDGE ( 'NONE', *, *, #202, .F. ) ;
#124 = VERTEX_POINT ( 'NONE', #183 ) ;
#125 = DIRECTION ( 'NONE',  ( -1.000000000000000000, 0.000000000000000000, 0.000000000000000000 ) ) ;
#126 = VECTOR ( 'NONE', #155, 1000.000000000000000 ) ;
#127 = PLANE ( 'NONE',  #56 ) ;
#128 = PRODUCT_DEFINITION_CONTEXT ( 'detailed design', #160, 'design' ) ;
#129 = CARTESIAN_POINT ( 'NONE',  ( -25.00000000000000000, -2.000000000000000000, 1000.000000000000000 ) ) ;
#130 = CLOSED_SHELL ( 'NONE', ( #6, #89, #117, #196, #147, #167 ) ) ;
#131 = DIRECTION ( 'NONE',  ( 0.000000000000000000, -0.000000000000000000, -1.000000000000000000 ) ) ;
#132 = APPLICATION_CONTEXT ( 'automotive_design' ) ;
#133 = LINE ( 'NONE', #197, #190 ) ;
#134 = APPLICATION_PROTOCOL_DEFINITION ( 'draft international standard', 'automotive_design', 1998, #132 ) ;
#135 = COLOUR_RGB ( '',0.7921568627450980005, 0.8196078431372548767, 0.9333333333333333481 ) ;
#136 =( NAMED_UNIT ( * ) SI_UNIT ( $, .STERADIAN. ) SOLID_ANGLE_UNIT ( ) );
#137 = CARTESIAN_POINT ( 'NONE',  ( 0.000000000000000000, 0.000000000000000000, 0.000000000000000000 ) ) ;
#138 = EDGE_CURVE ( 'NONE', #29, #109, #25, .T. ) ;
#139 = ORIENTED_EDGE ( 'NONE', *, *, #79, .T. ) ;
#140 = DIRECTION ( 'NONE',  ( 1.000000000000000000, 0.000000000000000000, 0.000000000000000000 ) ) ;
#141 = VECTOR ( 'NONE', #148, 1000.000000000000000 ) ;
#142 = PRODUCT_DEFINITION_SHAPE ( 'NONE', 'NONE',  #224 ) ;
#143 = ORIENTED_EDGE ( 'NONE', *, *, #138, .T. ) ;
#144 = VERTEX_POINT ( 'NONE', #23 ) ;
#145 = CARTESIAN_POINT ( 'NONE',  ( -25.00000000000000000, 2.000000000000000000, 0.000000000000000000 ) ) ;
#146 = DIRECTION ( 'NONE',  ( -1.000000000000000000, -0.000000000000000000, -0.000000000000000000 ) ) ;
#147 = ADVANCED_FACE ( 'NONE', ( #39 ), #164, .F. ) ;
#148 = DIRECTION ( 'NONE',  ( -0.000000000000000000, -0.000000000000000000, -1.000000000000000000 ) ) ;
#149 = CARTESIAN_POINT ( 'NONE',  ( -25.00000000000000000, 2.000000000000000000, 1000.000000000000000 ) ) ;
#150 = AXIS2_PLACEMENT_3D ( 'NONE', #80, #163, #10 ) ;
#151 = DIRECTION ( 'NONE',  ( 0.000000000000000000, 0.000000000000000000, 1.000000000000000000 ) ) ;
#152 = DIRECTION ( 'NONE',  ( 1.000000000000000000, 0.000000000000000000, 0.000000000000000000 ) ) ;
#153 = PRODUCT_RELATED_PRODUCT_CATEGORY ( 'part', '', ( #180 ) ) ;
#154 = VECTOR ( 'NONE', #41, 1000.000000000000000 ) ;
#155 = DIRECTION ( 'NONE',  ( 0.000000000000000000, 1.000000000000000000, 0.000000000000000000 ) ) ;
#156 = VERTEX_POINT ( 'NONE', #13 ) ;
#157 = AXIS2_PLACEMENT_3D ( 'NONE', #212, #105, #52 ) ;
#158 = ORIENTED_EDGE ( 'NONE', *, *, #11, .T. ) ;
#159 = ORIENTED_EDGE ( 'NONE', *, *, #215, .T. ) ;
#160 = APPLICATION_CONTEXT ( 'automotive_design' ) ;
#161 = VECTOR ( 'NONE', #26, 1000.000000000000000 ) ;
#162 = CARTESIAN_POINT ( 'NONE',  ( 25.00000000000000000, -2.000000000000000000, 1000.000000000000000 ) ) ;
#163 = DIRECTION ( 'NONE',  ( 0.000000000000000000, 0.000000000000000000, -1.000000000000000000 ) ) ;
#164 = PLANE ( 'NONE',  #218 ) ;
#165 = FACE_OUTER_BOUND ( 'NONE', #104, .T. ) ;
#166 = DIRECTION ( 'NONE',  ( 0.000000000000000000, 0.000000000000000000, -1.000000000000000000 ) ) ;
#167 = ADVANCED_FACE ( 'NONE', ( #165 ), #66, .T. ) ;
#168 = AXIS2_PLACEMENT_3D ( 'NONE', #102, #16, #140 ) ;
#169 = LINE ( 'NONE', #43, #182 ) ;
#170 = CARTESIAN_POINT ( 'NONE',  ( 25.00000000000000000, -2.000000000000000000, 0.000000000000000000 ) ) ;
#171 = ORIENTED_EDGE ( 'NONE', *, *, #108, .T. ) ;
#172 = PRODUCT_CONTEXT ( 'NONE', #132, 'mechanical' ) ;
#173 = ORIENTED_EDGE ( 'NONE', *, *, #177, .F. ) ;
#174 = VECTOR ( 'NONE', #146, 1000.000000000000000 ) ;
#175 = PRESENTATION_STYLE_ASSIGNMENT (( #35 ) ) ;
#176 = ORIENTED_EDGE ( 'NONE', *, *, #60, .T. ) ;
#177 = EDGE_CURVE ( 'NONE', #144, #29, #42, .T. ) ;
#178 = PLANE ( 'NONE',  #119 ) ;
#179 = CONTEXT_DEPENDENT_SHAPE_REPRESENTATION ( #187, #142 ) ;
#180 = PRODUCT ( 'SH50S4X \X2\0410043b044e043c0438043d0438043504320430044f\X0\ \X2\043f043e043b043e04410430\X0\ \X2\04100414\X0\31\X2\0422\X0\ 50\X2\0445\X0\4 (\X2\041104350437\X0\ \X2\043f043e043a0440044b04420438044f\X0\)_50\X2\0445\X0\4', 'SH50S4X \X2\0410043b044e043c0438043d0438043504320430044f\X0\ \X2\043f043e043b043e04410430\X0\ \X2\04100414\X0\31\X2\0422\X0\ 50\X2\0445\X0\4 (\X2\041104350437\X0\ \X2\043f043e043a0440044b04420438044f\X0\)_50\X2\0445\X0\4', '', ( #207 ) ) ;
#181 = CARTESIAN_POINT ( 'NONE',  ( -25.00000000000000000, 2.000000000000000000, 1000.000000000000000 ) ) ;
#182 = VECTOR ( 'NONE', #87, 1000.000000000000000 ) ;
#183 = CARTESIAN_POINT ( 'NONE',  ( -25.00000000000000000, -2.000000000000000000, 1000.000000000000000 ) ) ;
#184 = DIRECTION ( 'NONE',  ( 0.000000000000000000, 0.000000000000000000, -1.000000000000000000 ) ) ;
#185 = LINE ( 'NONE', #129, #76 ) ;
#186 = ORIENTED_EDGE ( 'NONE', *, *, #206, .F. ) ;
#187 =( REPRESENTATION_RELATIONSHIP ('NONE','NONE', #33, #81 ) REPRESENTATION_RELATIONSHIP_WITH_TRANSFORMATION ( #69 )SHAPE_REPRESENTATION_RELATIONSHIP( ) );
#188 = LINE ( 'NONE', #2, #14 ) ;
#189 = ORIENTED_EDGE ( 'NONE', *, *, #22, .F. ) ;
#190 = VECTOR ( 'NONE', #78, 1000.000000000000000 ) ;
#191 = DIRECTION ( 'NONE',  ( 1.000000000000000000, 0.000000000000000000, 0.000000000000000000 ) ) ;
#192 = PLANE ( 'NONE',  #82 ) ;
#193 = SURFACE_STYLE_FILL_AREA ( #122 ) ;
#194 = SURFACE_SIDE_STYLE ('',( #193 ) ) ;
#195 = PRODUCT_DEFINITION_FORMATION_WITH_SPECIFIED_SOURCE ( 'ANY', '', #59, .NOT_KNOWN. ) ;
#196 = ADVANCED_FACE ( 'NONE', ( #40 ), #178, .F. ) ;
#197 = CARTESIAN_POINT ( 'NONE',  ( -25.00000000000000000, -2.000000000000000000, 1000.000000000000000 ) ) ;
#198 = PRODUCT_DEFINITION_SHAPE ( 'NONE', 'NONE',  #205 ) ;
#199 = DIRECTION ( 'NONE',  ( -0.000000000000000000, -0.000000000000000000, -1.000000000000000000 ) ) ;
#200 =( GEOMETRIC_REPRESENTATION_CONTEXT ( 3 ) GLOBAL_UNCERTAINTY_ASSIGNED_CONTEXT ( ( #3 ) ) GLOBAL_UNIT_ASSIGNED_CONTEXT ( ( #68, #211, #45 ) ) REPRESENTATION_CONTEXT ( 'NONE', 'WORKASPACE' ) );
#201 = CARTESIAN_POINT ( 'NONE',  ( -25.00000000000000000, -2.000000000000000000, 1000.000000000000000 ) ) ;
#202 = EDGE_CURVE ( 'NONE', #124, #144, #188, .T. ) ;
#203 = CARTESIAN_POINT ( 'NONE',  ( 25.00000000000000000, 2.000000000000000000, 1000.000000000000000 ) ) ;
#204 = FACE_OUTER_BOUND ( 'NONE', #120, .T. ) ;
#205 = PRODUCT_DEFINITION ( 'UNKNOWN', '', #195, #128 ) ;
#206 = EDGE_CURVE ( 'NONE', #29, #32, #169, .T. ) ;
#207 = PRODUCT_CONTEXT ( 'NONE', #99, 'mechanical' ) ;
#208 = APPLICATION_PROTOCOL_DEFINITION ( 'draft international standard', 'automotive_design', 1998, #210 ) ;
#209 = LINE ( 'NONE', #217, #72 ) ;
#210 = APPLICATION_CONTEXT ( 'automotive_design' ) ;
#211 =( NAMED_UNIT ( * ) PLANE_ANGLE_UNIT ( ) SI_UNIT ( $, .RADIAN. ) );
#212 = CARTESIAN_POINT ( 'NONE',  ( 0.000000000000000000, 0.000000000000000000, 0.000000000000000000 ) ) ;
#213 = ORIENTED_EDGE ( 'NONE', *, *, #206, .T. ) ;
#214 = EDGE_LOOP ( 'NONE', ( #34, #17, #123, #171 ) ) ;
#215 = EDGE_CURVE ( 'NONE', #156, #109, #31, .T. ) ;
#216 = CARTESIAN_POINT ( 'NONE',  ( 25.00000000000000000, -2.000000000000000000, 1000.000000000000000 ) ) ;
#217 = CARTESIAN_POINT ( 'NONE',  ( -25.00000000000000000, -2.000000000000000000, 0.000000000000000000 ) ) ;
#218 = AXIS2_PLACEMENT_3D ( 'NONE', #222, #166, #100 ) ;
#219 = CARTESIAN_POINT ( 'NONE',  ( -25.00000000000000000, -2.000000000000000000, 1000.000000000000000 ) ) ;
#220 = DIRECTION ( 'NONE',  ( 1.000000000000000000, 0.000000000000000000, 0.000000000000000000 ) ) ;
#221 = STYLED_ITEM ( 'NONE', ( #175 ), #9 ) ;
#222 = CARTESIAN_POINT ( 'NONE',  ( 0.000000000000000000, 0.000000000000000000, 1000.000000000000000 ) ) ;
#223 = APPLICATION_PROTOCOL_DEFINITION ( 'draft international standard', 'automotive_design', 1998, #99 ) ;
#224 = NEXT_ASSEMBLY_USAGE_OCCURRENCE ( 'NAUO1', ' ', ' ', #205, #20, $ ) ;
ENDSEC;
END-ISO-10303-21;
