ISO-10303-21;
HEADER;
FILE_DESCRIPTION (( 'STEP AP214' ),
    '1' );
FILE_NAME ('Ñáîðêà9.STEP',
    '2025-01-29T14:43:56',
    ( '' ),
    ( '' ),
    'SwSTEP 2.0',
    'SolidWorks 2024',
    '' );
FILE_SCHEMA (( 'AUTOMOTIVE_DESIGN' ));
ENDSEC;

DATA;
#1 = ORIENTED_EDGE ( 'NONE', *, *, #143, .F. ) ;
#2 = VECTOR ( 'NONE', #161, 1000.000000000000000 ) ;
#3 = CARTESIAN_POINT ( 'NONE',  ( 12.50000000000000000, -12.50000000000000000, 1000.000000000000000 ) ) ;
#4 = CARTESIAN_POINT ( 'NONE',  ( -12.50000000000000000, 12.50000000000000000, 1000.000000000000000 ) ) ;
#5 = CARTESIAN_POINT ( 'NONE',  ( 0.000000000000000000, 0.000000000000000000, 0.000000000000000000 ) ) ;
#6 = VECTOR ( 'NONE', #110, 1000.000000000000000 ) ;
#7 = CARTESIAN_POINT ( 'NONE',  ( -12.50000000000000000, -12.50000000000000000, 0.000000000000000000 ) ) ;
#8 = FACE_OUTER_BOUND ( 'NONE', #34, .T. ) ;
#9 = DIRECTION ( 'NONE',  ( -1.000000000000000000, 0.000000000000000000, -0.000000000000000000 ) ) ;
#10 = UNCERTAINTY_MEASURE_WITH_UNIT (LENGTH_MEASURE( 1.000000000000000082E-05 ), #14, 'distance_accuracy_value', 'NONE');
#11 = FACE_OUTER_BOUND ( 'NONE', #120, .T. ) ;
#12 = PRODUCT_RELATED_PRODUCT_CATEGORY ( 'part', '', ( #198 ) ) ;
#13 = DIRECTION ( 'NONE',  ( -1.000000000000000000, -0.000000000000000000, -0.000000000000000000 ) ) ;
#14 =( LENGTH_UNIT ( ) NAMED_UNIT ( * ) SI_UNIT ( .MILLI., .METRE. ) );
#15 = EDGE_CURVE ( 'NONE', #104, #81, #122, .T. ) ;
#16 = ORIENTED_EDGE ( 'NONE', *, *, #76, .F. ) ;
#17 = DIRECTION ( 'NONE',  ( 1.000000000000000000, 0.000000000000000000, 0.000000000000000000 ) ) ;
#18 = VERTEX_POINT ( 'NONE', #53 ) ;
#19 = CARTESIAN_POINT ( 'NONE',  ( 12.50000000000000000, 12.50000000000000000, 1000.000000000000000 ) ) ;
#20 = ADVANCED_FACE ( 'NONE', ( #124 ), #180, .F. ) ;
#21 = EDGE_CURVE ( 'NONE', #50, #86, #213, .T. ) ;
#22 = PRODUCT_DEFINITION_FORMATION_WITH_SPECIFIED_SOURCE ( 'ANY', '', #198, .NOT_KNOWN. ) ;
#23 = PRESENTATION_LAYER_ASSIGNMENT (  '', '', ( #150 ) ) ;
#24 = EDGE_LOOP ( 'NONE', ( #192, #69, #32, #72 ) ) ;
#25 = DIRECTION ( 'NONE',  ( 1.000000000000000000, 0.000000000000000000, 0.000000000000000000 ) ) ;
#26 = VECTOR ( 'NONE', #13, 1000.000000000000000 ) ;
#27 = DIRECTION ( 'NONE',  ( 0.000000000000000000, 0.000000000000000000, -1.000000000000000000 ) ) ;
#28 = SURFACE_STYLE_FILL_AREA ( #112 ) ;
#29 =( NAMED_UNIT ( * ) PLANE_ANGLE_UNIT ( ) SI_UNIT ( $, .RADIAN. ) );
#30 = APPLICATION_PROTOCOL_DEFINITION ( 'draft international standard', 'automotive_design', 1998, #67 ) ;
#31 = APPLICATION_PROTOCOL_DEFINITION ( 'draft international standard', 'automotive_design', 1998, #136 ) ;
#32 = ORIENTED_EDGE ( 'NONE', *, *, #15, .F. ) ;
#33 = CLOSED_SHELL ( 'NONE', ( #20, #128, #91, #205, #138, #162 ) ) ;
#34 = EDGE_LOOP ( 'NONE', ( #173, #82, #16, #151 ) ) ;
#35 = DIRECTION ( 'NONE',  ( -1.000000000000000000, 0.000000000000000000, 0.000000000000000000 ) ) ;
#36 = DIRECTION ( 'NONE',  ( 0.000000000000000000, 0.000000000000000000, 1.000000000000000000 ) ) ;
#37 = ORIENTED_EDGE ( 'NONE', *, *, #158, .T. ) ;
#38 = PRESENTATION_STYLE_ASSIGNMENT (( #73 ) ) ;
#39 = PRODUCT ( '\X2\04210431043e0440043a0430\X0\9', '\X2\04210431043e0440043a0430\X0\9', '', ( #131 ) ) ;
#40 = CARTESIAN_POINT ( 'NONE',  ( -12.50000000000000000, -12.50000000000000000, 0.000000000000000000 ) ) ;
#41 =( GEOMETRIC_REPRESENTATION_CONTEXT ( 3 ) GLOBAL_UNCERTAINTY_ASSIGNED_CONTEXT ( ( #167 ) ) GLOBAL_UNIT_ASSIGNED_CONTEXT ( ( #93, #29, #62 ) ) REPRESENTATION_CONTEXT ( 'NONE', 'WORKASPACE' ) );
#42 = DIRECTION ( 'NONE',  ( 0.000000000000000000, -0.000000000000000000, -1.000000000000000000 ) ) ;
#43 = DIRECTION ( 'NONE',  ( 0.000000000000000000, -0.000000000000000000, 1.000000000000000000 ) ) ;
#44 = CARTESIAN_POINT ( 'NONE',  ( -12.50000000000000000, -12.50000000000000000, 1000.000000000000000 ) ) ;
#45 = EDGE_LOOP ( 'NONE', ( #177, #155, #1, #83 ) ) ;
#46 = APPLICATION_PROTOCOL_DEFINITION ( 'draft international standard', 'automotive_design', 1998, #132 ) ;
#47 = PRODUCT_RELATED_PRODUCT_CATEGORY ( 'part', '', ( #39 ) ) ;
#48 =( NAMED_UNIT ( * ) PLANE_ANGLE_UNIT ( ) SI_UNIT ( $, .RADIAN. ) );
#49 = ORIENTED_EDGE ( 'NONE', *, *, #85, .T. ) ;
#50 = VERTEX_POINT ( 'NONE', #52 ) ;
#51 = VERTEX_POINT ( 'NONE', #66 ) ;
#52 = CARTESIAN_POINT ( 'NONE',  ( -12.50000000000000000, -12.50000000000000000, 1000.000000000000000 ) ) ;
#53 = CARTESIAN_POINT ( 'NONE',  ( 12.50000000000000000, -12.50000000000000000, 0.000000000000000000 ) ) ;
#54 = AXIS2_PLACEMENT_3D ( 'NONE', #59, #108, #42 ) ;
#55 = FACE_OUTER_BOUND ( 'NONE', #45, .T. ) ;
#56 = EDGE_CURVE ( 'NONE', #65, #51, #103, .T. ) ;
#57 = FACE_OUTER_BOUND ( 'NONE', #159, .T. ) ;
#58 = AXIS2_PLACEMENT_3D ( 'NONE', #5, #172, #17 ) ;
#59 = CARTESIAN_POINT ( 'NONE',  ( -12.50000000000000000, 12.50000000000000000, 1000.000000000000000 ) ) ;
#60 = DIRECTION ( 'NONE',  ( 0.000000000000000000, 0.000000000000000000, -1.000000000000000000 ) ) ;
#61 = VECTOR ( 'NONE', #156, 1000.000000000000000 ) ;
#62 =( NAMED_UNIT ( * ) SI_UNIT ( $, .STERADIAN. ) SOLID_ANGLE_UNIT ( ) );
#63 = PRODUCT_DEFINITION ( 'UNKNOWN', '', #84, #217 ) ;
#64 = VERTEX_POINT ( 'NONE', #4 ) ;
#65 = VERTEX_POINT ( 'NONE', #68 ) ;
#66 = CARTESIAN_POINT ( 'NONE',  ( 12.50000000000000000, 12.50000000000000000, 0.000000000000000000 ) ) ;
#67 = APPLICATION_CONTEXT ( 'automotive_design' ) ;
#68 = CARTESIAN_POINT ( 'NONE',  ( 12.50000000000000000, 12.50000000000000000, 1000.000000000000000 ) ) ;
#69 = ORIENTED_EDGE ( 'NONE', *, *, #214, .F. ) ;
#70 = VECTOR ( 'NONE', #171, 1000.000000000000000 ) ;
#71 = DIRECTION ( 'NONE',  ( 1.000000000000000000, 0.000000000000000000, 0.000000000000000000 ) ) ;
#72 = ORIENTED_EDGE ( 'NONE', *, *, #174, .F. ) ;
#73 = SURFACE_STYLE_USAGE ( .BOTH. , #163 ) ;
#74 = DIRECTION ( 'NONE',  ( 0.000000000000000000, 1.000000000000000000, 0.000000000000000000 ) ) ;
#75 = DIRECTION ( 'NONE',  ( -0.000000000000000000, -0.000000000000000000, -1.000000000000000000 ) ) ;
#76 = EDGE_CURVE ( 'NONE', #64, #50, #123, .T. ) ;
#77 = UNCERTAINTY_MEASURE_WITH_UNIT (LENGTH_MEASURE( 1.000000000000000082E-05 ), #179, 'distance_accuracy_value', 'NONE');
#78 = PLANE ( 'NONE',  #79 ) ;
#79 = AXIS2_PLACEMENT_3D ( 'NONE', #44, #201, #43 ) ;
#80 = SHAPE_DEFINITION_REPRESENTATION ( #176, #94 ) ;
#81 = VERTEX_POINT ( 'NONE', #40 ) ;
#82 = ORIENTED_EDGE ( 'NONE', *, *, #85, .F. ) ;
#83 = ORIENTED_EDGE ( 'NONE', *, *, #56, .T. ) ;
#84 = PRODUCT_DEFINITION_FORMATION_WITH_SPECIFIED_SOURCE ( 'ANY', '', #39, .NOT_KNOWN. ) ;
#85 = EDGE_CURVE ( 'NONE', #50, #81, #89, .T. ) ;
#86 = VERTEX_POINT ( 'NONE', #164 ) ;
#87 = PRODUCT_DEFINITION_SHAPE ( 'NONE', 'NONE',  #224 ) ;
#88 = PLANE ( 'NONE',  #101 ) ;
#89 = LINE ( 'NONE', #168, #121 ) ;
#90 = AXIS2_PLACEMENT_3D ( 'NONE', #106, #27, #220 ) ;
#91 = ADVANCED_FACE ( 'NONE', ( #8 ), #88, .F. ) ;
#92 = DIRECTION ( 'NONE',  ( -1.000000000000000000, -0.000000000000000000, -0.000000000000000000 ) ) ;
#93 =( LENGTH_UNIT ( ) NAMED_UNIT ( * ) SI_UNIT ( .MILLI., .METRE. ) );
#94 = SHAPE_REPRESENTATION ( '\X2\04210431043e0440043a0430\X0\9', ( #107, #219 ), #210 ) ;
#95 = DIRECTION ( 'NONE',  ( 0.000000000000000000, 1.000000000000000000, 0.000000000000000000 ) ) ;
#96 = DIRECTION ( 'NONE',  ( 0.000000000000000000, 0.000000000000000000, 1.000000000000000000 ) ) ;
#97 = DIRECTION ( 'NONE',  ( 0.000000000000000000, 0.000000000000000000, 1.000000000000000000 ) ) ;
#98 = EDGE_CURVE ( 'NONE', #18, #51, #183, .T. ) ;
#99 =( REPRESENTATION_RELATIONSHIP ('NONE','NONE', #94, #182 ) REPRESENTATION_RELATIONSHIP_WITH_TRANSFORMATION ( #152 )SHAPE_REPRESENTATION_RELATIONSHIP( ) );
#100 = ORIENTED_EDGE ( 'NONE', *, *, #98, .T. ) ;
#101 = AXIS2_PLACEMENT_3D ( 'NONE', #215, #25, #130 ) ;
#102 = SHAPE_DEFINITION_REPRESENTATION ( #134, #182 ) ;
#103 = LINE ( 'NONE', #19, #61 ) ;
#104 = VERTEX_POINT ( 'NONE', #125 ) ;
#105 = ORIENTED_EDGE ( 'NONE', *, *, #56, .F. ) ;
#106 = CARTESIAN_POINT ( 'NONE',  ( 0.000000000000000000, 0.000000000000000000, 1000.000000000000000 ) ) ;
#107 = AXIS2_PLACEMENT_3D ( 'NONE', #175, #97, #170 ) ;
#108 = DIRECTION ( 'NONE',  ( 0.000000000000000000, -1.000000000000000000, 0.000000000000000000 ) ) ;
#109 = COLOUR_RGB ( '',0.7921568627450980005, 0.8196078431372548767, 0.9333333333333333481 ) ;
#110 = DIRECTION ( 'NONE',  ( -0.000000000000000000, -0.000000000000000000, -1.000000000000000000 ) ) ;
#111 = FILL_AREA_STYLE_COLOUR ( '', #109 ) ;
#112 = FILL_AREA_STYLE ('',( #111 ) ) ;
#113 =( NAMED_UNIT ( * ) PLANE_ANGLE_UNIT ( ) SI_UNIT ( $, .RADIAN. ) );
#114 = CARTESIAN_POINT ( 'NONE',  ( 0.000000000000000000, 0.000000000000000000, 0.000000000000000000 ) ) ;
#115 = EDGE_CURVE ( 'NONE', #86, #65, #141, .T. ) ;
#116 = ORIENTED_EDGE ( 'NONE', *, *, #115, .T. ) ;
#117 = PRODUCT_CONTEXT ( 'NONE', #132, 'mechanical' ) ;
#118 = VECTOR ( 'NONE', #129, 1000.000000000000000 ) ;
#119 = ORIENTED_EDGE ( 'NONE', *, *, #115, .F. ) ;
#120 = EDGE_LOOP ( 'NONE', ( #116, #139, #211, #178 ) ) ;
#121 = VECTOR ( 'NONE', #147, 1000.000000000000000 ) ;
#122 = LINE ( 'NONE', #7, #2 ) ;
#123 = LINE ( 'NONE', #195, #118 ) ;
#124 = FACE_OUTER_BOUND ( 'NONE', #206, .T. ) ;
#125 = CARTESIAN_POINT ( 'NONE',  ( -12.50000000000000000, 12.50000000000000000, 0.000000000000000000 ) ) ;
#126 = LINE ( 'NONE', #202, #185 ) ;
#127 = PLANE ( 'NONE',  #90 ) ;
#128 = ADVANCED_FACE ( 'NONE', ( #55 ), #216, .F. ) ;
#129 = DIRECTION ( 'NONE',  ( -0.000000000000000000, -1.000000000000000000, -0.000000000000000000 ) ) ;
#130 = DIRECTION ( 'NONE',  ( 0.000000000000000000, 0.000000000000000000, -1.000000000000000000 ) ) ;
#131 = PRODUCT_CONTEXT ( 'NONE', #67, 'mechanical' ) ;
#132 = APPLICATION_CONTEXT ( 'automotive_design' ) ;
#133 = CONTEXT_DEPENDENT_SHAPE_REPRESENTATION ( #99, #87 ) ;
#134 = PRODUCT_DEFINITION_SHAPE ( 'NONE', 'NONE',  #137 ) ;
#135 = ADVANCED_BREP_SHAPE_REPRESENTATION ( '', ( #208, #160 ), #146 ) ;
#136 = APPLICATION_CONTEXT ( 'automotive_design' ) ;
#137 = PRODUCT_DEFINITION ( 'UNKNOWN', '', #22, #144 ) ;
#138 = ADVANCED_FACE ( 'NONE', ( #11 ), #127, .F. ) ;
#139 = ORIENTED_EDGE ( 'NONE', *, *, #143, .T. ) ;
#140 = LINE ( 'NONE', #165, #197 ) ;
#141 = LINE ( 'NONE', #221, #154 ) ;
#142 = CARTESIAN_POINT ( 'NONE',  ( -12.50000000000000000, 12.50000000000000000, 0.000000000000000000 ) ) ;
#143 = EDGE_CURVE ( 'NONE', #65, #64, #126, .T. ) ;
#144 = PRODUCT_DEFINITION_CONTEXT ( 'detailed design', #149, 'design' ) ;
#145 = CARTESIAN_POINT ( 'NONE',  ( -12.50000000000000000, 12.50000000000000000, 1000.000000000000000 ) ) ;
#146 =( GEOMETRIC_REPRESENTATION_CONTEXT ( 3 ) GLOBAL_UNCERTAINTY_ASSIGNED_CONTEXT ( ( #10 ) ) GLOBAL_UNIT_ASSIGNED_CONTEXT ( ( #14, #113, #207 ) ) REPRESENTATION_CONTEXT ( 'NONE', 'WORKASPACE' ) );
#147 = DIRECTION ( 'NONE',  ( -0.000000000000000000, -0.000000000000000000, -1.000000000000000000 ) ) ;
#148 = CARTESIAN_POINT ( 'NONE',  ( 996.7539758729768664, 1006.264176258616430, 496.9828658904978056 ) ) ;
#149 = APPLICATION_CONTEXT ( 'automotive_design' ) ;
#150 = STYLED_ITEM ( 'NONE', ( #38 ), #208 ) ;
#151 = ORIENTED_EDGE ( 'NONE', *, *, #189, .T. ) ;
#152 = ITEM_DEFINED_TRANSFORMATION ( 'NONE', 'NONE', #219,  #160 ) ;
#153 = ORIENTED_EDGE ( 'NONE', *, *, #158, .F. ) ;
#154 = VECTOR ( 'NONE', #95, 1000.000000000000000 ) ;
#155 = ORIENTED_EDGE ( 'NONE', *, *, #189, .F. ) ;
#156 = DIRECTION ( 'NONE',  ( -0.000000000000000000, -0.000000000000000000, -1.000000000000000000 ) ) ;
#157 = DIRECTION ( 'NONE',  ( 0.000000000000000000, 0.000000000000000000, 1.000000000000000000 ) ) ;
#158 = EDGE_CURVE ( 'NONE', #86, #18, #140, .T. ) ;
#159 = EDGE_LOOP ( 'NONE', ( #188, #153, #196, #49 ) ) ;
#160 = AXIS2_PLACEMENT_3D ( 'NONE', #114, #157, #187 ) ;
#161 = DIRECTION ( 'NONE',  ( -0.000000000000000000, -1.000000000000000000, -0.000000000000000000 ) ) ;
#162 = ADVANCED_FACE ( 'NONE', ( #199 ), #200, .T. ) ;
#163 = SURFACE_SIDE_STYLE ('',( #28 ) ) ;
#164 = CARTESIAN_POINT ( 'NONE',  ( 12.50000000000000000, -12.50000000000000000, 1000.000000000000000 ) ) ;
#165 = CARTESIAN_POINT ( 'NONE',  ( 12.50000000000000000, -12.50000000000000000, 1000.000000000000000 ) ) ;
#166 = LINE ( 'NONE', #142, #26 ) ;
#167 = UNCERTAINTY_MEASURE_WITH_UNIT (LENGTH_MEASURE( 1.000000000000000082E-05 ), #93, 'distance_accuracy_value', 'NONE');
#168 = CARTESIAN_POINT ( 'NONE',  ( -12.50000000000000000, -12.50000000000000000, 1000.000000000000000 ) ) ;
#169 = VECTOR ( 'NONE', #74, 1000.000000000000000 ) ;
#170 = DIRECTION ( 'NONE',  ( 1.000000000000000000, 0.000000000000000000, 0.000000000000000000 ) ) ;
#171 = DIRECTION ( 'NONE',  ( 1.000000000000000000, 0.000000000000000000, 0.000000000000000000 ) ) ;
#172 = DIRECTION ( 'NONE',  ( 0.000000000000000000, 0.000000000000000000, 1.000000000000000000 ) ) ;
#173 = ORIENTED_EDGE ( 'NONE', *, *, #15, .T. ) ;
#174 = EDGE_CURVE ( 'NONE', #51, #104, #166, .T. ) ;
#175 = CARTESIAN_POINT ( 'NONE',  ( 0.000000000000000000, 0.000000000000000000, 0.000000000000000000 ) ) ;
#176 = PRODUCT_DEFINITION_SHAPE ( 'NONE', 'NONE',  #63 ) ;
#177 = ORIENTED_EDGE ( 'NONE', *, *, #174, .T. ) ;
#178 = ORIENTED_EDGE ( 'NONE', *, *, #21, .T. ) ;
#179 =( LENGTH_UNIT ( ) NAMED_UNIT ( * ) SI_UNIT ( .MILLI., .METRE. ) );
#180 = PLANE ( 'NONE',  #223 ) ;
#181 = CARTESIAN_POINT ( 'NONE',  ( 12.50000000000000000, -12.50000000000000000, 0.000000000000000000 ) ) ;
#182 = SHAPE_REPRESENTATION ( 'RS25 \X2\041f044004430442043e043a\X0\ \X2\0430043b044e043c0438043d043804350432044b0439\X0\, \X2\043a043204300434044004300442\X0\ 25x25 (\X2\0410043d\X0\. \X2\044104350440043504310440043e\X0\)_00', ( #160 ), #146 ) ;
#183 = LINE ( 'NONE', #181, #169 ) ;
#184 = LINE ( 'NONE', #222, #70 ) ;
#185 = VECTOR ( 'NONE', #92, 1000.000000000000000 ) ;
#186 =( NAMED_UNIT ( * ) SI_UNIT ( $, .STERADIAN. ) SOLID_ANGLE_UNIT ( ) );
#187 = DIRECTION ( 'NONE',  ( 1.000000000000000000, 0.000000000000000000, 0.000000000000000000 ) ) ;
#188 = ORIENTED_EDGE ( 'NONE', *, *, #214, .T. ) ;
#189 = EDGE_CURVE ( 'NONE', #64, #104, #218, .T. ) ;
#190 = APPLICATION_PROTOCOL_DEFINITION ( 'draft international standard', 'automotive_design', 1998, #149 ) ;
#191 = DIRECTION ( 'NONE',  ( 1.000000000000000000, 0.000000000000000000, 0.000000000000000000 ) ) ;
#192 = ORIENTED_EDGE ( 'NONE', *, *, #98, .F. ) ;
#193 = CARTESIAN_POINT ( 'NONE',  ( -12.50000000000000000, -12.50000000000000000, 1000.000000000000000 ) ) ;
#194 = AXIS2_PLACEMENT_3D ( 'NONE', #203, #60, #9 ) ;
#195 = CARTESIAN_POINT ( 'NONE',  ( -12.50000000000000000, -12.50000000000000000, 1000.000000000000000 ) ) ;
#196 = ORIENTED_EDGE ( 'NONE', *, *, #21, .F. ) ;
#197 = VECTOR ( 'NONE', #75, 1000.000000000000000 ) ;
#198 = PRODUCT ( 'RS25 \X2\041f044004430442043e043a\X0\ \X2\0430043b044e043c0438043d043804350432044b0439\X0\, \X2\043a043204300434044004300442\X0\ 25x25 (\X2\0410043d\X0\. \X2\044104350440043504310440043e\X0\)_00', 'RS25 \X2\041f044004430442043e043a\X0\ \X2\0430043b044e043c0438043d043804350432044b0439\X0\, \X2\043a043204300434044004300442\X0\ 25x25 (\X2\0410043d\X0\. \X2\044104350440043504310440043e\X0\)_00', '', ( #117 ) ) ;
#199 = FACE_OUTER_BOUND ( 'NONE', #24, .T. ) ;
#200 = PLANE ( 'NONE',  #194 ) ;
#201 = DIRECTION ( 'NONE',  ( 0.000000000000000000, 1.000000000000000000, 0.000000000000000000 ) ) ;
#202 = CARTESIAN_POINT ( 'NONE',  ( -12.50000000000000000, 12.50000000000000000, 1000.000000000000000 ) ) ;
#203 = CARTESIAN_POINT ( 'NONE',  ( 0.000000000000000000, 0.000000000000000000, 0.000000000000000000 ) ) ;
#204 = SHAPE_REPRESENTATION_RELATIONSHIP ( 'NONE' , 'NONE' ,  #182, #135 ) ;
#205 = ADVANCED_FACE ( 'NONE', ( #57 ), #78, .F. ) ;
#206 = EDGE_LOOP ( 'NONE', ( #100, #105, #119, #37 ) ) ;
#207 =( NAMED_UNIT ( * ) SI_UNIT ( $, .STERADIAN. ) SOLID_ANGLE_UNIT ( ) );
#208 = MANIFOLD_SOLID_BREP ( '\X2\0411043e0431044b0448043a0430\X0\-\X2\0412044b0442044f043d04430442044c\X0\1', #33 ) ;
#209 = MECHANICAL_DESIGN_GEOMETRIC_PRESENTATION_REPRESENTATION (  '', ( #150 ), #41 ) ;
#210 =( GEOMETRIC_REPRESENTATION_CONTEXT ( 3 ) GLOBAL_UNCERTAINTY_ASSIGNED_CONTEXT ( ( #77 ) ) GLOBAL_UNIT_ASSIGNED_CONTEXT ( ( #179, #48, #186 ) ) REPRESENTATION_CONTEXT ( 'NONE', 'WORKASPACE' ) );
#211 = ORIENTED_EDGE ( 'NONE', *, *, #76, .T. ) ;
#212 = VECTOR ( 'NONE', #71, 1000.000000000000000 ) ;
#213 = LINE ( 'NONE', #193, #212 ) ;
#214 = EDGE_CURVE ( 'NONE', #81, #18, #184, .T. ) ;
#215 = CARTESIAN_POINT ( 'NONE',  ( -12.50000000000000000, -12.50000000000000000, 1000.000000000000000 ) ) ;
#216 = PLANE ( 'NONE',  #54 ) ;
#217 = PRODUCT_DEFINITION_CONTEXT ( 'detailed design', #136, 'design' ) ;
#218 = LINE ( 'NONE', #145, #6 ) ;
#219 = AXIS2_PLACEMENT_3D ( 'NONE', #148, #96, #191 ) ;
#220 = DIRECTION ( 'NONE',  ( -1.000000000000000000, 0.000000000000000000, -0.000000000000000000 ) ) ;
#221 = CARTESIAN_POINT ( 'NONE',  ( 12.50000000000000000, -12.50000000000000000, 1000.000000000000000 ) ) ;
#222 = CARTESIAN_POINT ( 'NONE',  ( -12.50000000000000000, -12.50000000000000000, 0.000000000000000000 ) ) ;
#223 = AXIS2_PLACEMENT_3D ( 'NONE', #3, #35, #36 ) ;
#224 = NEXT_ASSEMBLY_USAGE_OCCURRENCE ( 'NAUO1', ' ', ' ', #63, #137, $ ) ;
ENDSEC;
END-ISO-10303-21;
