ISO-10303-21;
HEADER;
FILE_DESCRIPTION (( 'STEP AP214' ),
    '1' );
FILE_NAME ('Ñáîðêà8.STEP',
    '2025-03-28T10:54:40',
    ( '' ),
    ( '' ),
    'SwSTEP 2.0',
    'SolidWorks 2025',
    '' );
FILE_SCHEMA (( 'AUTOMOTIVE_DESIGN' ));
ENDSEC;

DATA;
#1 = UNCERTAINTY_MEASURE_WITH_UNIT (LENGTH_MEASURE( 1.000000000000000082E-05 ), #229, 'distance_accuracy_value', 'NONE');
#2 = CARTESIAN_POINT ( 'NONE',  ( 0.000000000000000000, 0.000000000000000000, 1000.000000000000000 ) ) ;
#3 = FACE_BOUND ( 'NONE', #11, .T. ) ;
#4 = PRODUCT_DEFINITION_FORMATION_WITH_SPECIFIED_SOURCE ( 'ANY', '', #14, .NOT_KNOWN. ) ;
#5 = PRODUCT_CONTEXT ( 'NONE', #33, 'mechanical' ) ;
#6 = PRODUCT ( '\X2\04210431043e0440043a0430\X0\8', '\X2\04210431043e0440043a0430\X0\8', '', ( #5 ) ) ;
#7 = CYLINDRICAL_SURFACE ( 'NONE', #32, 3.000000000000000444 ) ;
#8 = FACE_OUTER_BOUND ( 'NONE', #104, .T. ) ;
#9 = DIRECTION ( 'NONE',  ( -0.000000000000000000, -0.000000000000000000, -1.000000000000000000 ) ) ;
#10 = VERTEX_POINT ( 'NONE', #201 ) ;
#11 = EDGE_LOOP ( 'NONE', ( #127, #177 ) ) ;
#12 = VECTOR ( 'NONE', #217, 1000.000000000000000 ) ;
#13 = EDGE_CURVE ( 'NONE', #195, #139, #121, .T. ) ;
#14 = PRODUCT ( 'TR08S1 \X2\041f0440043e04440438043b044c\X0\ \X2\0430043b044e043c0438043d043804350432044b0439\X0\, \X2\04420440044304310430\X0\ \X2\00d8\X0\8\X2\0445\X0\1 (\X2\041104350437\X0\ \X2\043f043e043a0440044b04420438044f\X0\)_00', 'TR08S1 \X2\041f0440043e04440438043b044c\X0\ \X2\0430043b044e043c0438043d043804350432044b0439\X0\, \X2\04420440044304310430\X0\ \X2\00d8\X0\8\X2\0445\X0\1 (\X2\041104350437\X0\ \X2\043f043e043a0440044b04420438044f\X0\)_00', '', ( #17 ) ) ;
#15 = SURFACE_STYLE_FILL_AREA ( #227 ) ;
#16 =( NAMED_UNIT ( * ) SI_UNIT ( $, .STERADIAN. ) SOLID_ANGLE_UNIT ( ) );
#17 = PRODUCT_CONTEXT ( 'NONE', #73, 'mechanical' ) ;
#18 =( NAMED_UNIT ( * ) PLANE_ANGLE_UNIT ( ) SI_UNIT ( $, .RADIAN. ) );
#19 = AXIS2_PLACEMENT_3D ( 'NONE', #75, #55, #150 ) ;
#20 = VERTEX_POINT ( 'NONE', #179 ) ;
#21 = CARTESIAN_POINT ( 'NONE',  ( -4.000000000000000000, 0.000000000000000000, 1000.000000000000000 ) ) ;
#22 = PRESENTATION_LAYER_ASSIGNMENT (  '', '', ( #224 ) ) ;
#23 = DIRECTION ( 'NONE',  ( -0.000000000000000000, -0.000000000000000000, -1.000000000000000000 ) ) ;
#24 =( GEOMETRIC_REPRESENTATION_CONTEXT ( 3 ) GLOBAL_UNCERTAINTY_ASSIGNED_CONTEXT ( ( #57 ) ) GLOBAL_UNIT_ASSIGNED_CONTEXT ( ( #133, #18, #16 ) ) REPRESENTATION_CONTEXT ( 'NONE', 'WORKASPACE' ) );
#25 = ADVANCED_FACE ( 'NONE', ( #8 ), #7, .F. ) ;
#26 = ORIENTED_EDGE ( 'NONE', *, *, #191, .F. ) ;
#27 = CARTESIAN_POINT ( 'NONE',  ( 0.000000000000000000, 0.000000000000000000, 0.000000000000000000 ) ) ;
#28 = ORIENTED_EDGE ( 'NONE', *, *, #215, .T. ) ;
#29 = CARTESIAN_POINT ( 'NONE',  ( 0.000000000000000000, 0.000000000000000000, 1000.000000000000000 ) ) ;
#30 = EDGE_CURVE ( 'NONE', #69, #195, #108, .T. ) ;
#31 = LINE ( 'NONE', #159, #12 ) ;
#32 = AXIS2_PLACEMENT_3D ( 'NONE', #243, #9, #47 ) ;
#33 = APPLICATION_CONTEXT ( 'automotive_design' ) ;
#34 = DIRECTION ( 'NONE',  ( 1.000000000000000000, 0.000000000000000000, 0.000000000000000000 ) ) ;
#35 = DIRECTION ( 'NONE',  ( -0.000000000000000000, -0.000000000000000000, -1.000000000000000000 ) ) ;
#36 = EDGE_CURVE ( 'NONE', #90, #10, #31, .T. ) ;
#37 = FILL_AREA_STYLE_COLOUR ( '', #96 ) ;
#38 = AXIS2_PLACEMENT_3D ( 'NONE', #105, #94, #248 ) ;
#39 = SURFACE_SIDE_STYLE ('',( #192 ) ) ;
#40 = PRODUCT_DEFINITION_CONTEXT ( 'detailed design', #63, 'design' ) ;
#41 = APPLICATION_PROTOCOL_DEFINITION ( 'draft international standard', 'automotive_design', 1998, #110 ) ;
#42 = CLOSED_SHELL ( 'NONE', ( #72, #114, #163, #245, #128, #25 ) ) ;
#43 = ORIENTED_EDGE ( 'NONE', *, *, #13, .T. ) ;
#44 = CYLINDRICAL_SURFACE ( 'NONE', #203, 3.000000000000000444 ) ;
#45 = ORIENTED_EDGE ( 'NONE', *, *, #101, .T. ) ;
#46 = PRESENTATION_LAYER_ASSIGNMENT (  '', '', ( #247 ) ) ;
#47 = DIRECTION ( 'NONE',  ( -1.000000000000000000, 0.000000000000000000, 0.000000000000000000 ) ) ;
#48 =( REPRESENTATION_RELATIONSHIP ('NONE','NONE', #188, #156 ) REPRESENTATION_RELATIONSHIP_WITH_TRANSFORMATION ( #194 )SHAPE_REPRESENTATION_RELATIONSHIP( ) );
#49 = EDGE_CURVE ( 'NONE', #20, #90, #59, .T. ) ;
#50 = DIRECTION ( 'NONE',  ( -0.000000000000000000, -0.000000000000000000, -1.000000000000000000 ) ) ;
#51 = CARTESIAN_POINT ( 'NONE',  ( 0.000000000000000000, 0.000000000000000000, 1000.000000000000000 ) ) ;
#52 = CIRCLE ( 'NONE', #140, 4.000000000000000000 ) ;
#53 = PLANE ( 'NONE',  #193 ) ;
#54 =( LENGTH_UNIT ( ) NAMED_UNIT ( * ) SI_UNIT ( .MILLI., .METRE. ) );
#55 = DIRECTION ( 'NONE',  ( 0.000000000000000000, 0.000000000000000000, 1.000000000000000000 ) ) ;
#56 = CARTESIAN_POINT ( 'NONE',  ( 3.000000000000000444, 3.673940397442060361E-16, 0.000000000000000000 ) ) ;
#57 = UNCERTAINTY_MEASURE_WITH_UNIT (LENGTH_MEASURE( 1.000000000000000082E-05 ), #133, 'distance_accuracy_value', 'NONE');
#58 = LINE ( 'NONE', #77, #161 ) ;
#59 = CIRCLE ( 'NONE', #65, 3.000000000000000444 ) ;
#60 = APPLICATION_PROTOCOL_DEFINITION ( 'draft international standard', 'automotive_design', 1998, #33 ) ;
#61 = ORIENTED_EDGE ( 'NONE', *, *, #30, .T. ) ;
#62 = SHAPE_DEFINITION_REPRESENTATION ( #228, #156 ) ;
#63 = APPLICATION_CONTEXT ( 'automotive_design' ) ;
#64 = EDGE_LOOP ( 'NONE', ( #236, #141, #43, #213 ) ) ;
#65 = AXIS2_PLACEMENT_3D ( 'NONE', #184, #165, #246 ) ;
#66 = ORIENTED_EDGE ( 'NONE', *, *, #13, .F. ) ;
#67 = AXIS2_PLACEMENT_3D ( 'NONE', #166, #240, #34 ) ;
#68 = EDGE_LOOP ( 'NONE', ( #233, #28, #79, #66 ) ) ;
#69 = VERTEX_POINT ( 'NONE', #216 ) ;
#70 = FACE_OUTER_BOUND ( 'NONE', #64, .T. ) ;
#71 = EDGE_LOOP ( 'NONE', ( #103, #61 ) ) ;
#72 = ADVANCED_FACE ( 'NONE', ( #143 ), #44, .F. ) ;
#73 = APPLICATION_CONTEXT ( 'automotive_design' ) ;
#74 = PRODUCT_DEFINITION_FORMATION_WITH_SPECIFIED_SOURCE ( 'ANY', '', #6, .NOT_KNOWN. ) ;
#75 = CARTESIAN_POINT ( 'NONE',  ( 0.000000000000000000, 0.000000000000000000, 0.000000000000000000 ) ) ;
#76 = DIRECTION ( 'NONE',  ( 1.000000000000000000, 0.000000000000000000, 0.000000000000000000 ) ) ;
#77 = CARTESIAN_POINT ( 'NONE',  ( 3.000000000000000444, 3.673940397442060361E-16, 1000.000000000000000 ) ) ;
#78 = PRODUCT_RELATED_PRODUCT_CATEGORY ( 'part', '', ( #6 ) ) ;
#79 = ORIENTED_EDGE ( 'NONE', *, *, #172, .T. ) ;
#80 = PRODUCT_DEFINITION_CONTEXT ( 'detailed design', #110, 'design' ) ;
#81 = APPLICATION_PROTOCOL_DEFINITION ( 'draft international standard', 'automotive_design', 1998, #63 ) ;
#82 = CARTESIAN_POINT ( 'NONE',  ( 0.000000000000000000, 0.000000000000000000, 0.000000000000000000 ) ) ;
#83 = CIRCLE ( 'NONE', #19, 4.000000000000000000 ) ;
#84 = CARTESIAN_POINT ( 'NONE',  ( 0.000000000000000000, 0.000000000000000000, 1000.000000000000000 ) ) ;
#85 =( NAMED_UNIT ( * ) PLANE_ANGLE_UNIT ( ) SI_UNIT ( $, .RADIAN. ) );
#86 = DIRECTION ( 'NONE',  ( 0.000000000000000000, 0.000000000000000000, 1.000000000000000000 ) ) ;
#87 =( LENGTH_UNIT ( ) NAMED_UNIT ( * ) SI_UNIT ( .MILLI., .METRE. ) );
#88 = CYLINDRICAL_SURFACE ( 'NONE', #91, 4.000000000000000000 ) ;
#89 = EDGE_LOOP ( 'NONE', ( #123, #157 ) ) ;
#90 = VERTEX_POINT ( 'NONE', #160 ) ;
#91 = AXIS2_PLACEMENT_3D ( 'NONE', #29, #50, #202 ) ;
#92 =( NAMED_UNIT ( * ) SI_UNIT ( $, .STERADIAN. ) SOLID_ANGLE_UNIT ( ) );
#93 = DIRECTION ( 'NONE',  ( 1.000000000000000000, 0.000000000000000000, -0.000000000000000000 ) ) ;
#94 = DIRECTION ( 'NONE',  ( 0.000000000000000000, 0.000000000000000000, 1.000000000000000000 ) ) ;
#95 = DIRECTION ( 'NONE',  ( 1.000000000000000000, 0.000000000000000000, 0.000000000000000000 ) ) ;
#96 = COLOUR_RGB ( '',0.8666666666666666963, 0.9098039215686274384, 1.000000000000000000 ) ;
#97 = SURFACE_STYLE_USAGE ( .BOTH. , #39 ) ;
#98 = ORIENTED_EDGE ( 'NONE', *, *, #172, .F. ) ;
#99 = CARTESIAN_POINT ( 'NONE',  ( 4.000000000000000000, 4.898587196589412829E-16, 1000.000000000000000 ) ) ;
#100 = AXIS2_PLACEMENT_3D ( 'NONE', #208, #235, #76 ) ;
#101 = EDGE_CURVE ( 'NONE', #90, #20, #198, .T. ) ;
#102 = AXIS2_PLACEMENT_3D ( 'NONE', #84, #86, #244 ) ;
#103 = ORIENTED_EDGE ( 'NONE', *, *, #176, .T. ) ;
#104 = EDGE_LOOP ( 'NONE', ( #26, #136, #126, #145 ) ) ;
#105 = CARTESIAN_POINT ( 'NONE',  ( 996.7539758729768664, 1006.264176258616430, 496.9828658904978056 ) ) ;
#106 = PRODUCT_RELATED_PRODUCT_CATEGORY ( 'part', '', ( #14 ) ) ;
#107 = DIRECTION ( 'NONE',  ( 1.000000000000000000, 0.000000000000000000, 0.000000000000000000 ) ) ;
#108 = CIRCLE ( 'NONE', #102, 4.000000000000000000 ) ;
#109 = CARTESIAN_POINT ( 'NONE',  ( 0.000000000000000000, 0.000000000000000000, 0.000000000000000000 ) ) ;
#110 = APPLICATION_CONTEXT ( 'automotive_design' ) ;
#111 = ORIENTED_EDGE ( 'NONE', *, *, #144, .F. ) ;
#112 = AXIS2_PLACEMENT_3D ( 'NONE', #51, #35, #167 ) ;
#113 = CIRCLE ( 'NONE', #218, 3.000000000000000444 ) ;
#114 = ADVANCED_FACE ( 'NONE', ( #180 ), #88, .T. ) ;
#115 = FACE_BOUND ( 'NONE', #89, .T. ) ;
#116 = FILL_AREA_STYLE ('',( #37 ) ) ;
#117 = EDGE_LOOP ( 'NONE', ( #111, #98 ) ) ;
#118 = UNCERTAINTY_MEASURE_WITH_UNIT (LENGTH_MEASURE( 1.000000000000000082E-05 ), #87, 'distance_accuracy_value', 'NONE');
#119 = EDGE_CURVE ( 'NONE', #10, #200, #154, .T. ) ;
#120 = PLANE ( 'NONE',  #158 ) ;
#121 = LINE ( 'NONE', #221, #181 ) ;
#122 =( NAMED_UNIT ( * ) PLANE_ANGLE_UNIT ( ) SI_UNIT ( $, .RADIAN. ) );
#123 = ORIENTED_EDGE ( 'NONE', *, *, #119, .T. ) ;
#124 = SURFACE_STYLE_USAGE ( .BOTH. , #178 ) ;
#125 = DIRECTION ( 'NONE',  ( 0.000000000000000000, 0.000000000000000000, 1.000000000000000000 ) ) ;
#126 = ORIENTED_EDGE ( 'NONE', *, *, #36, .T. ) ;
#127 = ORIENTED_EDGE ( 'NONE', *, *, #101, .F. ) ;
#128 = ADVANCED_FACE ( 'NONE', ( #70 ), #223, .T. ) ;
#129 = CARTESIAN_POINT ( 'NONE',  ( 0.000000000000000000, 0.000000000000000000, 0.000000000000000000 ) ) ;
#130 = AXIS2_PLACEMENT_3D ( 'NONE', #2, #151, #231 ) ;
#131 = SHAPE_REPRESENTATION_RELATIONSHIP ( 'NONE' , 'NONE' ,  #156, #142 ) ;
#132 = CARTESIAN_POINT ( 'NONE',  ( 0.000000000000000000, 0.000000000000000000, 1000.000000000000000 ) ) ;
#133 =( LENGTH_UNIT ( ) NAMED_UNIT ( * ) SI_UNIT ( .MILLI., .METRE. ) );
#134 = MANIFOLD_SOLID_BREP ( '\X2\0411043e0431044b0448043a0430\X0\-\X2\0412044b0442044f043d04430442044c\X0\1', #42 ) ;
#135 = PRESENTATION_STYLE_ASSIGNMENT (( #97 ) ) ;
#136 = ORIENTED_EDGE ( 'NONE', *, *, #49, .T. ) ;
#137 = ORIENTED_EDGE ( 'NONE', *, *, #119, .F. ) ;
#138 = PRODUCT_DEFINITION_SHAPE ( 'NONE', 'NONE',  #251 ) ;
#139 = VERTEX_POINT ( 'NONE', #209 ) ;
#140 = AXIS2_PLACEMENT_3D ( 'NONE', #196, #170, #95 ) ;
#141 = ORIENTED_EDGE ( 'NONE', *, *, #176, .F. ) ;
#142 = ADVANCED_BREP_SHAPE_REPRESENTATION ( '', ( #134, #67 ), #173 ) ;
#143 = FACE_OUTER_BOUND ( 'NONE', #174, .T. ) ;
#144 = EDGE_CURVE ( 'NONE', #139, #162, #83, .T. ) ;
#145 = ORIENTED_EDGE ( 'NONE', *, *, #226, .F. ) ;
#146 =( GEOMETRIC_REPRESENTATION_CONTEXT ( 3 ) GLOBAL_UNCERTAINTY_ASSIGNED_CONTEXT ( ( #211 ) ) GLOBAL_UNIT_ASSIGNED_CONTEXT ( ( #54, #85, #92 ) ) REPRESENTATION_CONTEXT ( 'NONE', 'WORKASPACE' ) );
#147 = DIRECTION ( 'NONE',  ( 1.000000000000000000, 0.000000000000000000, 0.000000000000000000 ) ) ;
#148 = PRESENTATION_STYLE_ASSIGNMENT (( #124 ) ) ;
#149 = MECHANICAL_DESIGN_GEOMETRIC_PRESENTATION_REPRESENTATION (  '', ( #224 ), #146 ) ;
#150 = DIRECTION ( 'NONE',  ( 1.000000000000000000, 0.000000000000000000, 0.000000000000000000 ) ) ;
#151 = DIRECTION ( 'NONE',  ( 0.000000000000000000, 0.000000000000000000, 1.000000000000000000 ) ) ;
#152 = DIRECTION ( 'NONE',  ( -0.000000000000000000, -0.000000000000000000, -1.000000000000000000 ) ) ;
#153 = ORIENTED_EDGE ( 'NONE', *, *, #191, .T. ) ;
#154 = CIRCLE ( 'NONE', #242, 3.000000000000000444 ) ;
#155 = DIRECTION ( 'NONE',  ( 0.000000000000000000, 0.000000000000000000, 1.000000000000000000 ) ) ;
#156 = SHAPE_REPRESENTATION ( 'TR08S1 \X2\041f0440043e04440438043b044c\X0\ \X2\0430043b044e043c0438043d043804350432044b0439\X0\, \X2\04420440044304310430\X0\ \X2\00d8\X0\8\X2\0445\X0\1 (\X2\041104350437\X0\ \X2\043f043e043a0440044b04420438044f\X0\)_00', ( #67 ), #173 ) ;
#157 = ORIENTED_EDGE ( 'NONE', *, *, #226, .T. ) ;
#158 = AXIS2_PLACEMENT_3D ( 'NONE', #132, #169, #250 ) ;
#159 = CARTESIAN_POINT ( 'NONE',  ( -3.000000000000000444, 0.000000000000000000, 1000.000000000000000 ) ) ;
#160 = CARTESIAN_POINT ( 'NONE',  ( -3.000000000000000444, 0.000000000000000000, 1000.000000000000000 ) ) ;
#161 = VECTOR ( 'NONE', #152, 1000.000000000000000 ) ;
#162 = VERTEX_POINT ( 'NONE', #212 ) ;
#163 = ADVANCED_FACE ( 'NONE', ( #230, #3 ), #120, .T. ) ;
#164 = DIRECTION ( 'NONE',  ( 1.000000000000000000, 0.000000000000000000, 0.000000000000000000 ) ) ;
#165 = DIRECTION ( 'NONE',  ( 0.000000000000000000, 0.000000000000000000, 1.000000000000000000 ) ) ;
#166 = CARTESIAN_POINT ( 'NONE',  ( 0.000000000000000000, 0.000000000000000000, 0.000000000000000000 ) ) ;
#167 = DIRECTION ( 'NONE',  ( -1.000000000000000000, 0.000000000000000000, 0.000000000000000000 ) ) ;
#168 = CONTEXT_DEPENDENT_SHAPE_REPRESENTATION ( #48, #138 ) ;
#169 = DIRECTION ( 'NONE',  ( 0.000000000000000000, 0.000000000000000000, 1.000000000000000000 ) ) ;
#170 = DIRECTION ( 'NONE',  ( 0.000000000000000000, 0.000000000000000000, 1.000000000000000000 ) ) ;
#171 = DIRECTION ( 'NONE',  ( -0.000000000000000000, -0.000000000000000000, -1.000000000000000000 ) ) ;
#172 = EDGE_CURVE ( 'NONE', #162, #139, #52, .T. ) ;
#173 =( GEOMETRIC_REPRESENTATION_CONTEXT ( 3 ) GLOBAL_UNCERTAINTY_ASSIGNED_CONTEXT ( ( #1 ) ) GLOBAL_UNIT_ASSIGNED_CONTEXT ( ( #229, #206, #185 ) ) REPRESENTATION_CONTEXT ( 'NONE', 'WORKASPACE' ) );
#174 = EDGE_LOOP ( 'NONE', ( #45, #153, #137, #204 ) ) ;
#175 = APPLICATION_PROTOCOL_DEFINITION ( 'draft international standard', 'automotive_design', 1998, #73 ) ;
#176 = EDGE_CURVE ( 'NONE', #195, #69, #219, .T. ) ;
#177 = ORIENTED_EDGE ( 'NONE', *, *, #49, .F. ) ;
#178 = SURFACE_SIDE_STYLE ('',( #15 ) ) ;
#179 = CARTESIAN_POINT ( 'NONE',  ( 3.000000000000000444, 3.673940397442060361E-16, 1000.000000000000000 ) ) ;
#180 = FACE_OUTER_BOUND ( 'NONE', #68, .T. ) ;
#181 = VECTOR ( 'NONE', #23, 1000.000000000000000 ) ;
#182 =( GEOMETRIC_REPRESENTATION_CONTEXT ( 3 ) GLOBAL_UNCERTAINTY_ASSIGNED_CONTEXT ( ( #118 ) ) GLOBAL_UNIT_ASSIGNED_CONTEXT ( ( #87, #122, #199 ) ) REPRESENTATION_CONTEXT ( 'NONE', 'WORKASPACE' ) );
#183 = DIRECTION ( 'NONE',  ( 0.000000000000000000, 0.000000000000000000, 1.000000000000000000 ) ) ;
#184 = CARTESIAN_POINT ( 'NONE',  ( 0.000000000000000000, 0.000000000000000000, 1000.000000000000000 ) ) ;
#185 =( NAMED_UNIT ( * ) SI_UNIT ( $, .STERADIAN. ) SOLID_ANGLE_UNIT ( ) );
#186 = MECHANICAL_DESIGN_GEOMETRIC_PRESENTATION_REPRESENTATION (  '', ( #247 ), #24 ) ;
#187 = FILL_AREA_STYLE_COLOUR ( '', #207 ) ;
#188 = SHAPE_REPRESENTATION ( '\X2\04210431043e0440043a0430\X0\8', ( #100, #38 ), #182 ) ;
#189 = DIRECTION ( 'NONE',  ( 0.000000000000000000, 0.000000000000000000, 1.000000000000000000 ) ) ;
#190 = DIRECTION ( 'NONE',  ( 0.000000000000000000, 0.000000000000000000, 1.000000000000000000 ) ) ;
#191 = EDGE_CURVE ( 'NONE', #20, #200, #58, .T. ) ;
#192 = SURFACE_STYLE_FILL_AREA ( #116 ) ;
#193 = AXIS2_PLACEMENT_3D ( 'NONE', #129, #190, #93 ) ;
#194 = ITEM_DEFINED_TRANSFORMATION ( 'NONE', 'NONE', #38,  #67 ) ;
#195 = VERTEX_POINT ( 'NONE', #21 ) ;
#196 = CARTESIAN_POINT ( 'NONE',  ( 0.000000000000000000, 0.000000000000000000, 0.000000000000000000 ) ) ;
#197 = CARTESIAN_POINT ( 'NONE',  ( 0.000000000000000000, 0.000000000000000000, 1000.000000000000000 ) ) ;
#198 = CIRCLE ( 'NONE', #237, 3.000000000000000444 ) ;
#199 =( NAMED_UNIT ( * ) SI_UNIT ( $, .STERADIAN. ) SOLID_ANGLE_UNIT ( ) );
#200 = VERTEX_POINT ( 'NONE', #56 ) ;
#201 = CARTESIAN_POINT ( 'NONE',  ( -3.000000000000000444, 0.000000000000000000, 0.000000000000000000 ) ) ;
#202 = DIRECTION ( 'NONE',  ( -1.000000000000000000, 0.000000000000000000, 0.000000000000000000 ) ) ;
#203 = AXIS2_PLACEMENT_3D ( 'NONE', #197, #238, #222 ) ;
#204 = ORIENTED_EDGE ( 'NONE', *, *, #36, .F. ) ;
#205 = PRODUCT_DEFINITION_SHAPE ( 'NONE', 'NONE',  #234 ) ;
#206 =( NAMED_UNIT ( * ) PLANE_ANGLE_UNIT ( ) SI_UNIT ( $, .RADIAN. ) );
#207 = COLOUR_RGB ( '',0.8666666666666666963, 0.9098039215686274384, 1.000000000000000000 ) ;
#208 = CARTESIAN_POINT ( 'NONE',  ( 0.000000000000000000, 0.000000000000000000, 0.000000000000000000 ) ) ;
#209 = CARTESIAN_POINT ( 'NONE',  ( -4.000000000000000000, 0.000000000000000000, 0.000000000000000000 ) ) ;
#210 = LINE ( 'NONE', #99, #232 ) ;
#211 = UNCERTAINTY_MEASURE_WITH_UNIT (LENGTH_MEASURE( 1.000000000000000082E-05 ), #54, 'distance_accuracy_value', 'NONE');
#212 = CARTESIAN_POINT ( 'NONE',  ( 4.000000000000000000, 4.898587196589412829E-16, 0.000000000000000000 ) ) ;
#213 = ORIENTED_EDGE ( 'NONE', *, *, #144, .T. ) ;
#214 = SHAPE_DEFINITION_REPRESENTATION ( #205, #188 ) ;
#215 = EDGE_CURVE ( 'NONE', #69, #162, #210, .T. ) ;
#216 = CARTESIAN_POINT ( 'NONE',  ( 4.000000000000000000, 4.898587196589412829E-16, 1000.000000000000000 ) ) ;
#217 = DIRECTION ( 'NONE',  ( -0.000000000000000000, -0.000000000000000000, -1.000000000000000000 ) ) ;
#218 = AXIS2_PLACEMENT_3D ( 'NONE', #82, #155, #147 ) ;
#219 = CIRCLE ( 'NONE', #130, 4.000000000000000000 ) ;
#220 = DIRECTION ( 'NONE',  ( 1.000000000000000000, 0.000000000000000000, 0.000000000000000000 ) ) ;
#221 = CARTESIAN_POINT ( 'NONE',  ( -4.000000000000000000, 0.000000000000000000, 1000.000000000000000 ) ) ;
#222 = DIRECTION ( 'NONE',  ( -1.000000000000000000, 0.000000000000000000, 0.000000000000000000 ) ) ;
#223 = CYLINDRICAL_SURFACE ( 'NONE', #112, 4.000000000000000000 ) ;
#224 = STYLED_ITEM ( 'NONE', ( #148 ), #142 ) ;
#225 = FACE_OUTER_BOUND ( 'NONE', #117, .T. ) ;
#226 = EDGE_CURVE ( 'NONE', #200, #10, #113, .T. ) ;
#227 = FILL_AREA_STYLE ('',( #187 ) ) ;
#228 = PRODUCT_DEFINITION_SHAPE ( 'NONE', 'NONE',  #239 ) ;
#229 =( LENGTH_UNIT ( ) NAMED_UNIT ( * ) SI_UNIT ( .MILLI., .METRE. ) );
#230 = FACE_OUTER_BOUND ( 'NONE', #71, .T. ) ;
#231 = DIRECTION ( 'NONE',  ( 1.000000000000000000, 0.000000000000000000, 0.000000000000000000 ) ) ;
#232 = VECTOR ( 'NONE', #171, 1000.000000000000000 ) ;
#233 = ORIENTED_EDGE ( 'NONE', *, *, #30, .F. ) ;
#234 = PRODUCT_DEFINITION ( 'UNKNOWN', '', #74, #40 ) ;
#235 = DIRECTION ( 'NONE',  ( 0.000000000000000000, 0.000000000000000000, 1.000000000000000000 ) ) ;
#236 = ORIENTED_EDGE ( 'NONE', *, *, #215, .F. ) ;
#237 = AXIS2_PLACEMENT_3D ( 'NONE', #241, #125, #107 ) ;
#238 = DIRECTION ( 'NONE',  ( -0.000000000000000000, -0.000000000000000000, -1.000000000000000000 ) ) ;
#239 = PRODUCT_DEFINITION ( 'UNKNOWN', '', #4, #80 ) ;
#240 = DIRECTION ( 'NONE',  ( 0.000000000000000000, 0.000000000000000000, 1.000000000000000000 ) ) ;
#241 = CARTESIAN_POINT ( 'NONE',  ( 0.000000000000000000, 0.000000000000000000, 1000.000000000000000 ) ) ;
#242 = AXIS2_PLACEMENT_3D ( 'NONE', #109, #183, #164 ) ;
#243 = CARTESIAN_POINT ( 'NONE',  ( 0.000000000000000000, 0.000000000000000000, 1000.000000000000000 ) ) ;
#244 = DIRECTION ( 'NONE',  ( 1.000000000000000000, 0.000000000000000000, 0.000000000000000000 ) ) ;
#245 = ADVANCED_FACE ( 'NONE', ( #225, #115 ), #53, .F. ) ;
#246 = DIRECTION ( 'NONE',  ( 1.000000000000000000, 0.000000000000000000, 0.000000000000000000 ) ) ;
#247 = STYLED_ITEM ( 'NONE', ( #135 ), #134 ) ;
#248 = DIRECTION ( 'NONE',  ( 1.000000000000000000, 0.000000000000000000, 0.000000000000000000 ) ) ;
#249 = AXIS2_PLACEMENT_3D ( 'NONE', #27, #189, #220 ) ;
#250 = DIRECTION ( 'NONE',  ( 1.000000000000000000, 0.000000000000000000, -0.000000000000000000 ) ) ;
#251 = NEXT_ASSEMBLY_USAGE_OCCURRENCE ( 'NAUO1', ' ', ' ', #234, #239, $ ) ;
ENDSEC;
END-ISO-10303-21;
