ISO-10303-21;
HEADER;
FILE_DESCRIPTION (( 'STEP AP214' ),
    '1' );
FILE_NAME ('A199 Äèñòàíöèîííàÿ âòóëêà 5õ3 ìì.STEP',
    '2020-10-06T11:12:28',
    ( 'Windows User' ),
    ( '' ),
    'SwSTEP 2.0',
    'SolidWorks 2020',
    '' );
FILE_SCHEMA (( 'AUTOMOTIVE_DESIGN' ));
ENDSEC;

DATA;
#1 = CARTESIAN_POINT ( 'NONE',  ( 0.0000000000000000000, -1.500000000000000000, 0.0000000000000000000 ) ) ;
#2 = AXIS2_PLACEMENT_3D ( 'NONE', #113, #298, #169 ) ;
#3 = VERTEX_POINT ( 'NONE', #349 ) ;
#4 = MECHANICAL_DESIGN_GEOMETRIC_PRESENTATION_REPRESENTATION (  '', ( #163 ), #346 ) ;
#5 = ORIENTED_EDGE ( 'NONE', *, *, #50, .F. ) ;
#6 = ORIENTED_EDGE ( 'NONE', *, *, #54, .T. ) ;
#7 = VERTEX_POINT ( 'NONE', #67 ) ;
#8 = DIRECTION ( 'NONE',  ( -0.0000000000000000000, -1.000000000000000000, -0.0000000000000000000 ) ) ;
#9 = ORIENTED_EDGE ( 'NONE', *, *, #245, .F. ) ;
#10 = AXIS2_PLACEMENT_3D ( 'NONE', #26, #191, #242 ) ;
#11 = PRESENTATION_LAYER_ASSIGNMENT (  '', '', ( #270 ) ) ;
#12 = FACE_OUTER_BOUND ( 'NONE', #38, .T. ) ;
#13 = EDGE_LOOP ( 'NONE', ( #9, #310, #288, #129 ) ) ;
#14 = DIRECTION ( 'NONE',  ( 8.659560562354931626E-17, -0.7071067811865474617, 0.7071067811865475727 ) ) ;
#15 = PRODUCT ( 'A199 Äèñòàíöèîííàÿ âòóëêà 5õ3 ìì', 'A199 Äèñòàíöèîííàÿ âòóëêà 5õ3 ìì', '', ( #109 ) ) ;
#16 = DIRECTION ( 'NONE',  ( -0.0000000000000000000, 1.000000000000000000, -0.0000000000000000000 ) ) ;
#17 = CIRCLE ( 'NONE', #330, 2.774999999999999467 ) ;
#18 = FACE_OUTER_BOUND ( 'NONE', #257, .T. ) ;
#19 = ADVANCED_FACE ( 'NONE', ( #151 ), #232, .F. ) ;
#20 = PRESENTATION_STYLE_ASSIGNMENT (( #166 ) ) ;
#21 = DIRECTION ( 'NONE',  ( 0.0000000000000000000, 0.0000000000000000000, 1.000000000000000000 ) ) ;
#22 = APPLICATION_PROTOCOL_DEFINITION ( 'draft international standard', 'automotive_design', 1998, #275 ) ;
#23 = CARTESIAN_POINT ( 'NONE',  ( 0.0000000000000000000, -1.400000000000001465, 0.0000000000000000000 ) ) ;
#24 = DIRECTION ( 'NONE',  ( 0.0000000000000000000, 0.0000000000000000000, 1.000000000000000000 ) ) ;
#25 = ADVANCED_FACE ( 'NONE', ( #60, #117 ), #255, .F. ) ;
#26 = CARTESIAN_POINT ( 'NONE',  ( 0.0000000000000000000, 1.500000000000000000, 0.0000000000000000000 ) ) ;
#27 = DIRECTION ( 'NONE',  ( 0.0000000000000000000, 0.0000000000000000000, 1.000000000000000000 ) ) ;
#28 = SURFACE_STYLE_USAGE ( .BOTH. , #333 ) ;
#29 = VECTOR ( 'NONE', #272, 1000.000000000000000 ) ;
#30 = CARTESIAN_POINT ( 'NONE',  ( 0.0000000000000000000, -1.500000000000000000, 0.0000000000000000000 ) ) ;
#31 = ORIENTED_EDGE ( 'NONE', *, *, #357, .F. ) ;
#32 = EDGE_CURVE ( 'NONE', #36, #76, #356, .T. ) ;
#33 = DIRECTION ( 'NONE',  ( -0.0000000000000000000, -1.000000000000000000, -0.0000000000000000000 ) ) ;
#34 = DIRECTION ( 'NONE',  ( 0.0000000000000000000, 1.000000000000000000, 0.0000000000000000000 ) ) ;
#35 = EDGE_LOOP ( 'NONE', ( #136, #68, #227, #340 ) ) ;
#36 = VERTEX_POINT ( 'NONE', #148 ) ;
#37 = EDGE_LOOP ( 'NONE', ( #40, #234 ) ) ;
#38 = EDGE_LOOP ( 'NONE', ( #180, #258 ) ) ;
#39 = ORIENTED_EDGE ( 'NONE', *, *, #69, .F. ) ;
#40 = ORIENTED_EDGE ( 'NONE', *, *, #342, .T. ) ;
#41 = VERTEX_POINT ( 'NONE', #312 ) ;
#42 = AXIS2_PLACEMENT_3D ( 'NONE', #329, #193, #276 ) ;
#43 = MECHANICAL_DESIGN_GEOMETRIC_PRESENTATION_REPRESENTATION (  '', ( #270 ), #112 ) ;
#44 = CARTESIAN_POINT ( 'NONE',  ( 0.0000000000000000000, 1.400000000000003242, -5.000000000000000000 ) ) ;
#45 = DIRECTION ( 'NONE',  ( 0.0000000000000000000, -0.0000000000000000000, 1.000000000000000000 ) ) ;
#46 = CARTESIAN_POINT ( 'NONE',  ( 0.0000000000000000000, 1.500000000000000000, 0.0000000000000000000 ) ) ;
#47 =( NAMED_UNIT ( * ) SI_UNIT ( $, .STERADIAN. ) SOLID_ANGLE_UNIT ( ) );
#48 = VECTOR ( 'NONE', #115, 1000.000000000000000 ) ;
#49 = CONICAL_SURFACE ( 'NONE', #218, 2.574999999999999734, 0.7853981633974450594 ) ;
#50 = EDGE_CURVE ( 'NONE', #76, #253, #171, .T. ) ;
#51 = DIRECTION ( 'NONE',  ( 0.0000000000000000000, -1.000000000000000000, 0.0000000000000000000 ) ) ;
#52 = LINE ( 'NONE', #88, #29 ) ;
#53 = DIRECTION ( 'NONE',  ( -0.0000000000000000000, -1.000000000000000000, -0.0000000000000000000 ) ) ;
#54 = EDGE_CURVE ( 'NONE', #152, #41, #280, .T. ) ;
#55 = SHAPE_DEFINITION_REPRESENTATION ( #362, #325 ) ;
#56 = DIRECTION ( 'NONE',  ( 8.659560562355008046E-17, 0.7071067811865414665, -0.7071067811865536790 ) ) ;
#57 = EDGE_CURVE ( 'NONE', #198, #152, #173, .T. ) ;
#58 = PRODUCT_DEFINITION_FORMATION_WITH_SPECIFIED_SOURCE ( 'ANY', '', #15, .NOT_KNOWN. ) ;
#59 = FILL_AREA_STYLE ('',( #199 ) ) ;
#60 = FACE_OUTER_BOUND ( 'NONE', #61, .T. ) ;
#61 = EDGE_LOOP ( 'NONE', ( #128, #98 ) ) ;
#62 = ADVANCED_FACE ( 'NONE', ( #278 ), #49, .F. ) ;
#63 = CIRCLE ( 'NONE', #201, 2.774999999999999467 ) ;
#64 = AXIS2_PLACEMENT_3D ( 'NONE', #363, #223, #122 ) ;
#65 = ORIENTED_EDGE ( 'NONE', *, *, #342, .F. ) ;
#66 = CARTESIAN_POINT ( 'NONE',  ( 0.0000000000000000000, -1.400000000000001465, 0.0000000000000000000 ) ) ;
#67 = CARTESIAN_POINT ( 'NONE',  ( 0.0000000000000000000, 1.500000000000000000, -4.900000000000003020 ) ) ;
#68 = ORIENTED_EDGE ( 'NONE', *, *, #134, .T. ) ;
#69 = EDGE_CURVE ( 'NONE', #152, #198, #311, .T. ) ;
#70 = ORIENTED_EDGE ( 'NONE', *, *, #251, .T. ) ;
#71 = COLOUR_RGB ( '',0.8980392156862745390, 0.9176470588235293713, 0.9294117647058823817 ) ;
#72 = EDGE_LOOP ( 'NONE', ( #254, #260, #154, #229 ) ) ;
#73 = DIRECTION ( 'NONE',  ( 0.0000000000000000000, 1.000000000000000000, 0.0000000000000000000 ) ) ;
#74 = ORIENTED_EDGE ( 'NONE', *, *, #158, .F. ) ;
#75 = CARTESIAN_POINT ( 'NONE',  ( 0.0000000000000000000, 1.500000000000000000, 0.0000000000000000000 ) ) ;
#76 = VERTEX_POINT ( 'NONE', #147 ) ;
#77 = UNCERTAINTY_MEASURE_WITH_UNIT (LENGTH_MEASURE( 1.000000000000000082E-05 ), #241, 'distance_accuracy_value', 'NONE');
#78 = DIRECTION ( 'NONE',  ( 0.0000000000000000000, 0.0000000000000000000, 1.000000000000000000 ) ) ;
#79 = DIRECTION ( 'NONE',  ( 0.0000000000000000000, 1.000000000000000000, 0.0000000000000000000 ) ) ;
#80 = MANIFOLD_SOLID_BREP ( 'Ôàñêà2', #338 ) ;
#81 = ADVANCED_FACE ( 'NONE', ( #336 ), #94, .T. ) ;
#82 = DIRECTION ( 'NONE',  ( 0.0000000000000000000, 0.0000000000000000000, -1.000000000000000000 ) ) ;
#83 = VECTOR ( 'NONE', #56, 1000.000000000000000 ) ;
#84 = AXIS2_PLACEMENT_3D ( 'NONE', #225, #334, #283 ) ;
#85 = FACE_OUTER_BOUND ( 'NONE', #35, .T. ) ;
#86 = FACE_OUTER_BOUND ( 'NONE', #361, .T. ) ;
#87 = ADVANCED_FACE ( 'NONE', ( #314 ), #315, .T. ) ;
#88 = CARTESIAN_POINT ( 'NONE',  ( 0.0000000000000000000, 1.500000000000000000, -4.900000000000003020 ) ) ;
#89 = AXIS2_PLACEMENT_3D ( 'NONE', #46, #351, #135 ) ;
#90 = CARTESIAN_POINT ( 'NONE',  ( 0.0000000000000000000, 1.299999999999998712, 0.0000000000000000000 ) ) ;
#91 = CARTESIAN_POINT ( 'NONE',  ( 0.0000000000000000000, 1.500000000000000000, 0.0000000000000000000 ) ) ;
#92 = DIRECTION ( 'NONE',  ( 0.0000000000000000000, 0.0000000000000000000, 1.000000000000000000 ) ) ;
#93 = ORIENTED_EDGE ( 'NONE', *, *, #321, .F. ) ;
#94 = CONICAL_SURFACE ( 'NONE', #292, 4.900000000000003020, 0.7853981633974482790 ) ;
#95 = DIRECTION ( 'NONE',  ( 0.0000000000000000000, -1.000000000000000000, 0.0000000000000000000 ) ) ;
#96 = EDGE_CURVE ( 'NONE', #200, #253, #202, .T. ) ;
#97 = ORIENTED_EDGE ( 'NONE', *, *, #290, .T. ) ;
#98 = ORIENTED_EDGE ( 'NONE', *, *, #57, .T. ) ;
#99 = VECTOR ( 'NONE', #211, 1000.000000000000000 ) ;
#100 = VERTEX_POINT ( 'NONE', #308 ) ;
#101 = ORIENTED_EDGE ( 'NONE', *, *, #179, .F. ) ;
#102 = ADVANCED_FACE ( 'NONE', ( #85 ), #221, .T. ) ;
#103 = DIRECTION ( 'NONE',  ( -0.0000000000000000000, -1.000000000000000000, -0.0000000000000000000 ) ) ;
#104 = ORIENTED_EDGE ( 'NONE', *, *, #158, .T. ) ;
#105 = UNCERTAINTY_MEASURE_WITH_UNIT (LENGTH_MEASURE( 1.000000000000000082E-05 ), #247, 'distance_accuracy_value', 'NONE');
#106 = DIRECTION ( 'NONE',  ( 0.0000000000000000000, 0.0000000000000000000, 1.000000000000000000 ) ) ;
#107 = CIRCLE ( 'NONE', #89, 4.900000000000003020 ) ;
#108 = DIRECTION ( 'NONE',  ( 0.0000000000000000000, 0.0000000000000000000, 1.000000000000000000 ) ) ;
#109 = PRODUCT_CONTEXT ( 'NONE', #300, 'mechanical' ) ;
#110 = CARTESIAN_POINT ( 'NONE',  ( 0.0000000000000000000, 1.400000000000003242, 0.0000000000000000000 ) ) ;
#111 = AXIS2_PLACEMENT_3D ( 'NONE', #293, #344, #317 ) ;
#112 =( GEOMETRIC_REPRESENTATION_CONTEXT ( 3 ) GLOBAL_UNCERTAINTY_ASSIGNED_CONTEXT ( ( #105 ) ) GLOBAL_UNIT_ASSIGNED_CONTEXT ( ( #247, #126, #226 ) ) REPRESENTATION_CONTEXT ( 'NONE', 'WORKASPACE' ) );
#113 = CARTESIAN_POINT ( 'NONE',  ( 0.0000000000000000000, 1.400000000000003242, 0.0000000000000000000 ) ) ;
#114 =( LENGTH_UNIT ( ) NAMED_UNIT ( * ) SI_UNIT ( .MILLI., .METRE. ) );
#115 = DIRECTION ( 'NONE',  ( -0.0000000000000000000, -1.000000000000000000, -0.0000000000000000000 ) ) ;
#116 =( NAMED_UNIT ( * ) PLANE_ANGLE_UNIT ( ) SI_UNIT ( $, .RADIAN. ) );
#117 = FACE_BOUND ( 'NONE', #37, .T. ) ;
#118 = CIRCLE ( 'NONE', #139, 5.000000000000000000 ) ;
#119 = VECTOR ( 'NONE', #248, 1000.000000000000000 ) ;
#120 = EDGE_CURVE ( 'NONE', #100, #265, #299, .T. ) ;
#121 = CARTESIAN_POINT ( 'NONE',  ( 0.0000000000000000000, 1.299999999999998712, 0.0000000000000000000 ) ) ;
#122 = DIRECTION ( 'NONE',  ( 0.0000000000000000000, -0.0000000000000000000, 1.000000000000000000 ) ) ;
#123 = PRESENTATION_STYLE_ASSIGNMENT (( #28 ) ) ;
#124 = EDGE_CURVE ( 'NONE', #7, #265, #52, .T. ) ;
#125 = AXIS2_PLACEMENT_3D ( 'NONE', #303, #53, #246 ) ;
#126 =( NAMED_UNIT ( * ) PLANE_ANGLE_UNIT ( ) SI_UNIT ( $, .RADIAN. ) );
#127 = EDGE_LOOP ( 'NONE', ( #236, #341, #97, #177 ) ) ;
#128 = ORIENTED_EDGE ( 'NONE', *, *, #69, .T. ) ;
#129 = ORIENTED_EDGE ( 'NONE', *, *, #96, .F. ) ;
#130 = VERTEX_POINT ( 'NONE', #142 ) ;
#131 = CARTESIAN_POINT ( 'NONE',  ( 0.0000000000000000000, 1.500000000000000000, 0.0000000000000000000 ) ) ;
#132 = ORIENTED_EDGE ( 'NONE', *, *, #354, .F. ) ;
#133 = VECTOR ( 'NONE', #196, 1000.000000000000000 ) ;
#134 = EDGE_CURVE ( 'NONE', #100, #41, #305, .T. ) ;
#135 = DIRECTION ( 'NONE',  ( 0.0000000000000000000, 0.0000000000000000000, 1.000000000000000000 ) ) ;
#136 = ORIENTED_EDGE ( 'NONE', *, *, #179, .T. ) ;
#137 = DIRECTION ( 'NONE',  ( 0.0000000000000000000, 0.0000000000000000000, 1.000000000000000000 ) ) ;
#138 = DIRECTION ( 'NONE',  ( -0.0000000000000000000, 1.000000000000000000, -0.0000000000000000000 ) ) ;
#139 = AXIS2_PLACEMENT_3D ( 'NONE', #268, #138, #157 ) ;
#140 = CARTESIAN_POINT ( 'NONE',  ( 0.0000000000000000000, 0.0000000000000000000, 0.0000000000000000000 ) ) ;
#141 = CARTESIAN_POINT ( 'NONE',  ( 0.0000000000000000000, 1.500000000000000000, 0.0000000000000000000 ) ) ;
#142 = CARTESIAN_POINT ( 'NONE',  ( 3.398394867633904897E-16, 1.500000000000000000, -2.774999999999999467 ) ) ;
#143 = DIRECTION ( 'NONE',  ( -0.0000000000000000000, 1.000000000000000000, -0.0000000000000000000 ) ) ;
#144 = AXIS2_PLACEMENT_3D ( 'NONE', #320, #73, #78 ) ;
#145 = AXIS2_PLACEMENT_3D ( 'NONE', #284, #34, #358 ) ;
#146 =( NAMED_UNIT ( * ) PLANE_ANGLE_UNIT ( ) SI_UNIT ( $, .RADIAN. ) );
#147 = CARTESIAN_POINT ( 'NONE',  ( 0.0000000000000000000, 1.299999999999998712, -2.574999999999999734 ) ) ;
#148 = CARTESIAN_POINT ( 'NONE',  ( 3.153465507804433812E-16, 1.299999999999998712, 2.574999999999999734 ) ) ;
#149 = CIRCLE ( 'NONE', #343, 4.900000000000003020 ) ;
#150 = DIRECTION ( 'NONE',  ( -0.0000000000000000000, -1.000000000000000000, -0.0000000000000000000 ) ) ;
#151 = FACE_OUTER_BOUND ( 'NONE', #155, .T. ) ;
#152 = VERTEX_POINT ( 'NONE', #216 ) ;
#153 = CONICAL_SURFACE ( 'NONE', #224, 5.000000000000000000, 0.7853981633974569387 ) ;
#154 = ORIENTED_EDGE ( 'NONE', *, *, #354, .T. ) ;
#155 = EDGE_LOOP ( 'NONE', ( #287, #339, #93, #132 ) ) ;
#156 = EDGE_LOOP ( 'NONE', ( #289, #230, #101, #231 ) ) ;
#157 = DIRECTION ( 'NONE',  ( 0.0000000000000000000, 0.0000000000000000000, 1.000000000000000000 ) ) ;
#158 = EDGE_CURVE ( 'NONE', #198, #3, #164, .T. ) ;
#159 = CARTESIAN_POINT ( 'NONE',  ( 0.0000000000000000000, 1.500000000000000000, -5.000000000000000000 ) ) ;
#160 = CARTESIAN_POINT ( 'NONE',  ( 0.0000000000000000000, 1.500000000000000000, 0.0000000000000000000 ) ) ;
#161 = VECTOR ( 'NONE', #14, 1000.000000000000000 ) ;
#162 = CARTESIAN_POINT ( 'NONE',  ( 6.062001655779397525E-16, -1.500000000000000000, -4.899999999999999467 ) ) ;
#163 = STYLED_ITEM ( 'NONE', ( #20 ), #325 ) ;
#164 = LINE ( 'NONE', #215, #83 ) ;
#165 = ADVANCED_FACE ( 'NONE', ( #244 ), #355, .F. ) ;
#166 = SURFACE_STYLE_USAGE ( .BOTH. , #302 ) ;
#167 = LINE ( 'NONE', #219, #172 ) ;
#168 = CIRCLE ( 'NONE', #2, 5.000000000000000000 ) ;
#169 = DIRECTION ( 'NONE',  ( 0.0000000000000000000, 0.0000000000000000000, 1.000000000000000000 ) ) ;
#170 = PRESENTATION_LAYER_ASSIGNMENT (  '', '', ( #163 ) ) ;
#171 = LINE ( 'NONE', #359, #119 ) ;
#172 = VECTOR ( 'NONE', #324, 1000.000000000000114 ) ;
#173 = CIRCLE ( 'NONE', #263, 4.899999999999999467 ) ;
#174 = DIRECTION ( 'NONE',  ( 0.0000000000000000000, 0.0000000000000000000, 1.000000000000000000 ) ) ;
#175 = ORIENTED_EDGE ( 'NONE', *, *, #124, .T. ) ;
#176 = ORIENTED_EDGE ( 'NONE', *, *, #120, .F. ) ;
#177 = ORIENTED_EDGE ( 'NONE', *, *, #357, .T. ) ;
#178 = ORIENTED_EDGE ( 'NONE', *, *, #285, .F. ) ;
#179 = EDGE_CURVE ( 'NONE', #265, #100, #168, .T. ) ;
#180 = ORIENTED_EDGE ( 'NONE', *, *, #285, .T. ) ;
#181 = CARTESIAN_POINT ( 'NONE',  ( 0.0000000000000000000, 1.500000000000000000, 2.774999999999999467 ) ) ;
#182 = EDGE_LOOP ( 'NONE', ( #74, #39, #6, #31 ) ) ;
#183 = EDGE_CURVE ( 'NONE', #76, #130, #167, .T. ) ;
#184 = AXIS2_PLACEMENT_3D ( 'NONE', #195, #274, #82 ) ;
#185 = PRODUCT_DEFINITION_CONTEXT ( 'detailed design', #275, 'design' ) ;
#186 = LINE ( 'NONE', #352, #309 ) ;
#187 = CARTESIAN_POINT ( 'NONE',  ( 6.123233995736766282E-16, 1.500000000000000000, 5.000000000000000000 ) ) ;
#188 = CIRCLE ( 'NONE', #238, 5.000000000000000000 ) ;
#189 = AXIS2_PLACEMENT_3D ( 'NONE', #110, #51, #21 ) ;
#190 = FILL_AREA_STYLE_COLOUR ( '', #322 ) ;
#191 = DIRECTION ( 'NONE',  ( 0.0000000000000000000, -1.000000000000000000, 0.0000000000000000000 ) ) ;
#192 =( GEOMETRIC_REPRESENTATION_CONTEXT ( 3 ) GLOBAL_UNCERTAINTY_ASSIGNED_CONTEXT ( ( #77 ) ) GLOBAL_UNIT_ASSIGNED_CONTEXT ( ( #241, #146, #47 ) ) REPRESENTATION_CONTEXT ( 'NONE', 'WORKASPACE' ) );
#193 = DIRECTION ( 'NONE',  ( -0.0000000000000000000, -1.000000000000000000, -0.0000000000000000000 ) ) ;
#194 = DIRECTION ( 'NONE',  ( 0.0000000000000000000, 0.0000000000000000000, 1.000000000000000000 ) ) ;
#195 = CARTESIAN_POINT ( 'NONE',  ( 0.0000000000000000000, 1.500000000000000000, 0.0000000000000000000 ) ) ;
#196 = DIRECTION ( 'NONE',  ( 0.0000000000000000000, 0.7071067811865414665, 0.7071067811865536790 ) ) ;
#197 = DIRECTION ( 'NONE',  ( -0.0000000000000000000, 1.000000000000000000, -0.0000000000000000000 ) ) ;
#198 = VERTEX_POINT ( 'NONE', #162 ) ;
#199 = FILL_AREA_STYLE_COLOUR ( '', #71 ) ;
#200 = VERTEX_POINT ( 'NONE', #277 ) ;
#201 = AXIS2_PLACEMENT_3D ( 'NONE', #141, #327, #108 ) ;
#202 = CIRCLE ( 'NONE', #145, 2.574999999999999734 ) ;
#203 = DIRECTION ( 'NONE',  ( 0.0000000000000000000, 0.0000000000000000000, 1.000000000000000000 ) ) ;
#204 = EDGE_LOOP ( 'NONE', ( #209, #104, #206, #291 ) ) ;
#205 = DIRECTION ( 'NONE',  ( 0.0000000000000000000, 0.0000000000000000000, -1.000000000000000000 ) ) ;
#206 = ORIENTED_EDGE ( 'NONE', *, *, #326, .F. ) ;
#207 = ADVANCED_FACE ( 'NONE', ( #18 ), #217, .T. ) ;
#208 = AXIS2_PLACEMENT_3D ( 'NONE', #66, #197, #174 ) ;
#209 = ORIENTED_EDGE ( 'NONE', *, *, #57, .F. ) ;
#210 = PRODUCT_DEFINITION ( 'UNKNOWN', '', #58, #185 ) ;
#211 = DIRECTION ( 'NONE',  ( -0.0000000000000000000, -1.000000000000000000, -0.0000000000000000000 ) ) ;
#212 = DIRECTION ( 'NONE',  ( 0.0000000000000000000, 0.0000000000000000000, 1.000000000000000000 ) ) ;
#213 = FACE_OUTER_BOUND ( 'NONE', #127, .T. ) ;
#214 = DIRECTION ( 'NONE',  ( 0.0000000000000000000, 1.000000000000000000, 0.0000000000000000000 ) ) ;
#215 = CARTESIAN_POINT ( 'NONE',  ( 6.123233995736766282E-16, -1.400000000000001465, -5.000000000000000000 ) ) ;
#216 = CARTESIAN_POINT ( 'NONE',  ( 0.0000000000000000000, -1.500000000000000000, 4.899999999999999467 ) ) ;
#217 = CONICAL_SURFACE ( 'NONE', #10, 4.900000000000003020, 0.7853981633974482790 ) ;
#218 = AXIS2_PLACEMENT_3D ( 'NONE', #121, #307, #92 ) ;
#219 = CARTESIAN_POINT ( 'NONE',  ( 3.153465507804433812E-16, 1.299999999999998712, -2.574999999999999734 ) ) ;
#220 =( NAMED_UNIT ( * ) SI_UNIT ( $, .STERADIAN. ) SOLID_ANGLE_UNIT ( ) );
#221 = CYLINDRICAL_SURFACE ( 'NONE', #184, 5.000000000000000000 ) ;
#222 = EDGE_CURVE ( 'NONE', #130, #256, #63, .T. ) ;
#223 = DIRECTION ( 'NONE',  ( 0.0000000000000000000, 1.000000000000000000, 0.0000000000000000000 ) ) ;
#224 = AXIS2_PLACEMENT_3D ( 'NONE', #23, #16, #294 ) ;
#225 = CARTESIAN_POINT ( 'NONE',  ( 0.0000000000000000000, 1.299999999999998712, 0.0000000000000000000 ) ) ;
#226 =( NAMED_UNIT ( * ) SI_UNIT ( $, .STERADIAN. ) SOLID_ANGLE_UNIT ( ) );
#227 = ORIENTED_EDGE ( 'NONE', *, *, #326, .T. ) ;
#228 = ADVANCED_FACE ( 'NONE', ( #86 ), #301, .F. ) ;
#229 = ORIENTED_EDGE ( 'NONE', *, *, #222, .F. ) ;
#230 = ORIENTED_EDGE ( 'NONE', *, *, #331, .T. ) ;
#231 = ORIENTED_EDGE ( 'NONE', *, *, #124, .F. ) ;
#232 = CONICAL_SURFACE ( 'NONE', #282, 2.574999999999999734, 0.7853981633974450594 ) ;
#233 = CYLINDRICAL_SURFACE ( 'NONE', #111, 5.000000000000000000 ) ;
#234 = ORIENTED_EDGE ( 'NONE', *, *, #96, .T. ) ;
#235 = LINE ( 'NONE', #159, #99 ) ;
#236 = ORIENTED_EDGE ( 'NONE', *, *, #134, .F. ) ;
#237 = CARTESIAN_POINT ( 'NONE',  ( 0.0000000000000000000, -1.500000000000000000, 0.0000000000000000000 ) ) ;
#238 = AXIS2_PLACEMENT_3D ( 'NONE', #243, #143, #24 ) ;
#239 = CARTESIAN_POINT ( 'NONE',  ( 0.0000000000000000000, -1.500000000000000000, -2.574999999999999734 ) ) ;
#240 = ADVANCED_FACE ( 'NONE', ( #323 ), #153, .T. ) ;
#241 =( LENGTH_UNIT ( ) NAMED_UNIT ( * ) SI_UNIT ( .MILLI., .METRE. ) );
#242 = DIRECTION ( 'NONE',  ( 0.0000000000000000000, 0.0000000000000000000, -1.000000000000000000 ) ) ;
#243 = CARTESIAN_POINT ( 'NONE',  ( 0.0000000000000000000, -1.400000000000001465, 0.0000000000000000000 ) ) ;
#244 = FACE_OUTER_BOUND ( 'NONE', #13, .T. ) ;
#245 = EDGE_CURVE ( 'NONE', #36, #200, #261, .T. ) ;
#246 = DIRECTION ( 'NONE',  ( 0.0000000000000000000, 0.0000000000000000000, -1.000000000000000000 ) ) ;
#247 =( LENGTH_UNIT ( ) NAMED_UNIT ( * ) SI_UNIT ( .MILLI., .METRE. ) );
#248 = DIRECTION ( 'NONE',  ( -0.0000000000000000000, -1.000000000000000000, -0.0000000000000000000 ) ) ;
#249 = AXIS2_PLACEMENT_3D ( 'NONE', #237, #214, #137 ) ;
#250 = AXIS2_PLACEMENT_3D ( 'NONE', #30, #150, #279 ) ;
#251 = EDGE_CURVE ( 'NONE', #76, #36, #306, .T. ) ;
#252 = SURFACE_STYLE_FILL_AREA ( #59 ) ;
#253 = VERTEX_POINT ( 'NONE', #239 ) ;
#254 = ORIENTED_EDGE ( 'NONE', *, *, #183, .F. ) ;
#255 = PLANE ( 'NONE',  #64 ) ;
#256 = VERTEX_POINT ( 'NONE', #181 ) ;
#257 = EDGE_LOOP ( 'NONE', ( #286, #178, #175, #176 ) ) ;
#258 = ORIENTED_EDGE ( 'NONE', *, *, #350, .T. ) ;
#259 = ORIENTED_EDGE ( 'NONE', *, *, #321, .T. ) ;
#260 = ORIENTED_EDGE ( 'NONE', *, *, #32, .F. ) ;
#261 = LINE ( 'NONE', #296, #297 ) ;
#262 = CIRCLE ( 'NONE', #249, 2.574999999999999734 ) ;
#263 = AXIS2_PLACEMENT_3D ( 'NONE', #1, #33, #27 ) ;
#264 = DIRECTION ( 'NONE',  ( 0.0000000000000000000, 1.000000000000000000, 0.0000000000000000000 ) ) ;
#265 = VERTEX_POINT ( 'NONE', #44 ) ;
#266 = ADVANCED_FACE ( 'NONE', ( #12, #316 ), #353, .T. ) ;
#267 = CARTESIAN_POINT ( 'NONE',  ( 6.000769315822033698E-16, 1.500000000000000000, 4.900000000000003020 ) ) ;
#268 = CARTESIAN_POINT ( 'NONE',  ( 0.0000000000000000000, -1.400000000000001465, 0.0000000000000000000 ) ) ;
#269 = DIRECTION ( 'NONE',  ( 0.0000000000000000000, 0.7071067811865499042, 0.7071067811865452413 ) ) ;
#270 = STYLED_ITEM ( 'NONE', ( #123 ), #80 ) ;
#271 = DIRECTION ( 'NONE',  ( 1.000000000000000000, 0.0000000000000000000, 0.0000000000000000000 ) ) ;
#272 = DIRECTION ( 'NONE',  ( 0.0000000000000000000, -0.7071067811865474617, -0.7071067811865475727 ) ) ;
#273 = SURFACE_STYLE_FILL_AREA ( #328 ) ;
#274 = DIRECTION ( 'NONE',  ( -0.0000000000000000000, -1.000000000000000000, -0.0000000000000000000 ) ) ;
#275 = APPLICATION_CONTEXT ( 'automotive_design' ) ;
#276 = DIRECTION ( 'NONE',  ( 0.0000000000000000000, 0.0000000000000000000, -1.000000000000000000 ) ) ;
#277 = CARTESIAN_POINT ( 'NONE',  ( 3.153465507804433812E-16, -1.500000000000000000, 2.574999999999999734 ) ) ;
#278 = FACE_OUTER_BOUND ( 'NONE', #72, .T. ) ;
#279 = DIRECTION ( 'NONE',  ( 0.0000000000000000000, 0.0000000000000000000, 1.000000000000000000 ) ) ;
#280 = LINE ( 'NONE', #332, #133 ) ;
#281 = EDGE_LOOP ( 'NONE', ( #259, #364 ) ) ;
#282 = AXIS2_PLACEMENT_3D ( 'NONE', #90, #360, #203 ) ;
#283 = DIRECTION ( 'NONE',  ( 0.0000000000000000000, 0.0000000000000000000, 1.000000000000000000 ) ) ;
#284 = CARTESIAN_POINT ( 'NONE',  ( 0.0000000000000000000, -1.500000000000000000, 0.0000000000000000000 ) ) ;
#285 = EDGE_CURVE ( 'NONE', #7, #313, #107, .T. ) ;
#286 = ORIENTED_EDGE ( 'NONE', *, *, #331, .F. ) ;
#287 = ORIENTED_EDGE ( 'NONE', *, *, #251, .F. ) ;
#288 = ORIENTED_EDGE ( 'NONE', *, *, #50, .T. ) ;
#289 = ORIENTED_EDGE ( 'NONE', *, *, #350, .F. ) ;
#290 = EDGE_CURVE ( 'NONE', #265, #3, #235, .T. ) ;
#291 = ORIENTED_EDGE ( 'NONE', *, *, #54, .F. ) ;
#292 = AXIS2_PLACEMENT_3D ( 'NONE', #91, #95, #205 ) ;
#293 = CARTESIAN_POINT ( 'NONE',  ( 0.0000000000000000000, 1.500000000000000000, 0.0000000000000000000 ) ) ;
#294 = DIRECTION ( 'NONE',  ( 0.0000000000000000000, 0.0000000000000000000, 1.000000000000000000 ) ) ;
#295 = ADVANCED_FACE ( 'NONE', ( #213 ), #233, .T. ) ;
#296 = CARTESIAN_POINT ( 'NONE',  ( 3.153465507804433812E-16, 1.500000000000000000, 2.574999999999999734 ) ) ;
#297 = VECTOR ( 'NONE', #8, 1000.000000000000000 ) ;
#298 = DIRECTION ( 'NONE',  ( 0.0000000000000000000, -1.000000000000000000, 0.0000000000000000000 ) ) ;
#299 = CIRCLE ( 'NONE', #189, 5.000000000000000000 ) ;
#300 = APPLICATION_CONTEXT ( 'automotive_design' ) ;
#301 = CYLINDRICAL_SURFACE ( 'NONE', #42, 2.574999999999999734 ) ;
#302 = SURFACE_SIDE_STYLE ('',( #273 ) ) ;
#303 = CARTESIAN_POINT ( 'NONE',  ( 0.0000000000000000000, 1.500000000000000000, 0.0000000000000000000 ) ) ;
#304 = APPLICATION_PROTOCOL_DEFINITION ( 'draft international standard', 'automotive_design', 1998, #300 ) ;
#305 = LINE ( 'NONE', #187, #48 ) ;
#306 = CIRCLE ( 'NONE', #144, 2.574999999999999734 ) ;
#307 = DIRECTION ( 'NONE',  ( 0.0000000000000000000, 1.000000000000000000, 0.0000000000000000000 ) ) ;
#308 = CARTESIAN_POINT ( 'NONE',  ( 6.123233995736766282E-16, 1.400000000000003242, 5.000000000000000000 ) ) ;
#309 = VECTOR ( 'NONE', #269, 1000.000000000000114 ) ;
#310 = ORIENTED_EDGE ( 'NONE', *, *, #32, .T. ) ;
#311 = CIRCLE ( 'NONE', #250, 4.899999999999999467 ) ;
#312 = CARTESIAN_POINT ( 'NONE',  ( 6.123233995736766282E-16, -1.400000000000001465, 5.000000000000000000 ) ) ;
#313 = VERTEX_POINT ( 'NONE', #348 ) ;
#314 = FACE_OUTER_BOUND ( 'NONE', #182, .T. ) ;
#315 = CONICAL_SURFACE ( 'NONE', #208, 5.000000000000000000, 0.7853981633974569387 ) ;
#316 = FACE_BOUND ( 'NONE', #281, .T. ) ;
#317 = DIRECTION ( 'NONE',  ( 0.0000000000000000000, 0.0000000000000000000, -1.000000000000000000 ) ) ;
#318 = LINE ( 'NONE', #267, #161 ) ;
#319 = UNCERTAINTY_MEASURE_WITH_UNIT (LENGTH_MEASURE( 1.000000000000000082E-05 ), #114, 'distance_accuracy_value', 'NONE');
#320 = CARTESIAN_POINT ( 'NONE',  ( 0.0000000000000000000, 1.299999999999998712, 0.0000000000000000000 ) ) ;
#321 = EDGE_CURVE ( 'NONE', #256, #130, #17, .T. ) ;
#322 = COLOUR_RGB ( '',0.8980392156862745390, 0.9176470588235293713, 0.9294117647058823817 ) ;
#323 = FACE_OUTER_BOUND ( 'NONE', #204, .T. ) ;
#324 = DIRECTION ( 'NONE',  ( 8.659560562354904508E-17, 0.7071067811865499042, -0.7071067811865452413 ) ) ;
#325 = ADVANCED_BREP_SHAPE_REPRESENTATION ( 'A199 -ø¸ªðý¡øþýýð  òªºûúð 5¿3 üü', ( #80, #345 ), #192 ) ;
#326 = EDGE_CURVE ( 'NONE', #41, #3, #118, .T. ) ;
#327 = DIRECTION ( 'NONE',  ( -0.0000000000000000000, -1.000000000000000000, -0.0000000000000000000 ) ) ;
#328 = FILL_AREA_STYLE ('',( #190 ) ) ;
#329 = CARTESIAN_POINT ( 'NONE',  ( 0.0000000000000000000, 1.500000000000000000, 0.0000000000000000000 ) ) ;
#330 = AXIS2_PLACEMENT_3D ( 'NONE', #75, #103, #212 ) ;
#331 = EDGE_CURVE ( 'NONE', #313, #100, #318, .T. ) ;
#332 = CARTESIAN_POINT ( 'NONE',  ( 0.0000000000000000000, -1.400000000000001465, 5.000000000000000000 ) ) ;
#333 = SURFACE_SIDE_STYLE ('',( #252 ) ) ;
#334 = DIRECTION ( 'NONE',  ( 0.0000000000000000000, 1.000000000000000000, 0.0000000000000000000 ) ) ;
#335 = ORIENTED_EDGE ( 'NONE', *, *, #245, .T. ) ;
#336 = FACE_OUTER_BOUND ( 'NONE', #156, .T. ) ;
#337 = AXIS2_PLACEMENT_3D ( 'NONE', #131, #264, #45 ) ;
#338 = CLOSED_SHELL ( 'NONE', ( #81, #240, #19, #228, #102, #266, #25, #295, #165, #62, #87, #207 ) ) ;
#339 = ORIENTED_EDGE ( 'NONE', *, *, #183, .T. ) ;
#340 = ORIENTED_EDGE ( 'NONE', *, *, #290, .F. ) ;
#341 = ORIENTED_EDGE ( 'NONE', *, *, #120, .T. ) ;
#342 = EDGE_CURVE ( 'NONE', #253, #200, #262, .T. ) ;
#343 = AXIS2_PLACEMENT_3D ( 'NONE', #160, #79, #106 ) ;
#344 = DIRECTION ( 'NONE',  ( -0.0000000000000000000, -1.000000000000000000, -0.0000000000000000000 ) ) ;
#345 = AXIS2_PLACEMENT_3D ( 'NONE', #140, #194, #271 ) ;
#346 =( GEOMETRIC_REPRESENTATION_CONTEXT ( 3 ) GLOBAL_UNCERTAINTY_ASSIGNED_CONTEXT ( ( #319 ) ) GLOBAL_UNIT_ASSIGNED_CONTEXT ( ( #114, #116, #220 ) ) REPRESENTATION_CONTEXT ( 'NONE', 'WORKASPACE' ) );
#347 = PRODUCT_RELATED_PRODUCT_CATEGORY ( 'part', '', ( #15 ) ) ;
#348 = CARTESIAN_POINT ( 'NONE',  ( 6.062001655779399497E-16, 1.500000000000000000, 4.900000000000003020 ) ) ;
#349 = CARTESIAN_POINT ( 'NONE',  ( 0.0000000000000000000, -1.400000000000001465, -5.000000000000000000 ) ) ;
#350 = EDGE_CURVE ( 'NONE', #313, #7, #149, .T. ) ;
#351 = DIRECTION ( 'NONE',  ( 0.0000000000000000000, 1.000000000000000000, 0.0000000000000000000 ) ) ;
#352 = CARTESIAN_POINT ( 'NONE',  ( 0.0000000000000000000, 1.299999999999998712, 2.574999999999999734 ) ) ;
#353 = PLANE ( 'NONE',  #337 ) ;
#354 = EDGE_CURVE ( 'NONE', #36, #256, #186, .T. ) ;
#355 = CYLINDRICAL_SURFACE ( 'NONE', #125, 2.574999999999999734 ) ;
#356 = CIRCLE ( 'NONE', #84, 2.574999999999999734 ) ;
#357 = EDGE_CURVE ( 'NONE', #3, #41, #188, .T. ) ;
#358 = DIRECTION ( 'NONE',  ( 0.0000000000000000000, 0.0000000000000000000, 1.000000000000000000 ) ) ;
#359 = CARTESIAN_POINT ( 'NONE',  ( 0.0000000000000000000, 1.500000000000000000, -2.574999999999999734 ) ) ;
#360 = DIRECTION ( 'NONE',  ( 0.0000000000000000000, 1.000000000000000000, 0.0000000000000000000 ) ) ;
#361 = EDGE_LOOP ( 'NONE', ( #70, #335, #65, #5 ) ) ;
#362 = PRODUCT_DEFINITION_SHAPE ( 'NONE', 'NONE',  #210 ) ;
#363 = CARTESIAN_POINT ( 'NONE',  ( 0.0000000000000000000, -1.500000000000000000, 0.0000000000000000000 ) ) ;
#364 = ORIENTED_EDGE ( 'NONE', *, *, #222, .T. ) ;
ENDSEC;
END-ISO-10303-21;
